Oops, an error
Loading. Please wait.

Theres A Ghost In My House Bass Tab

2,204 views 3 this week
no commentswrite comment
1 2 3 4 5
please rate
Autoscroll
+/-
esc
set tempo
stop
Contributor
Difficulty
intermediate
WARNING: You are trying to view
                                    content from Ultimate-Guitar.com
                                    in an unauthorized application,
                                    which is prohibited.

                                    Please use an official Ultimate
                                    Guitar Tabs application for iPhone,
                                    iPad or Android to access legitimate
                                    chords, guitar, bass, and drum tabs
                                    from Ultimate-Guitar.com database.

                                    Type "ultimate guitar tabs" in Apple
                                    App Store's or Android Market's
                                    search to find the application.
Theres a Ghost In My House
Original Artist: R. Dean Taylor
Song Writers: Brian Holland, Lamont Dozier,
Edward Holland. R.Dean Taylor
Original Bassist: Unknown

tabbed by bass50611. Fairly straight forward song.
Any comments e-mail me goldenoldie.benson@sky.com

Intro:
G-------------------------------------------------------|
D-------------------------------------------------------|
A---4-44-44-44---4-44-44-44---7-77-77-77---7-77-77-77---|
E-------------------------------------------------------|

Verse:
G----------------------------------------------------------------|
D----------------7-7---5-5---------------------------------7-7---|
A------------5-5-----------5-5---7-77------------------5-5-------|
E---5-55---5--------------------------0-3-4---5-55---5-----------|

G--------------------------------------------------------------|
D---5-5--------------------------------------------------------|
A--------5-5---7-77---------------------------4-44-4-----------|
E--------------------0-4-5---7-77-7---4-44-4----------4-44-4---|

G---------------------|
D---------------------|
A---------------------|
E---5-55-5---2-22-2---|

Repeat Intro:

Repeat Verse:

Repeat Intro x2:

Repeat Verse:

For Outro Repeat Intro to fade
comments
We did not receive enough feedback on this tab! Please rate:
1 2 3 4 5
I want to post or [tab]
guest
You may want to rate the tab now too:
select rating
Please do not post tabs as comments. Select "correction" instead!