Oops, an error
Loading. Please wait.

Fire Of Rock Tab

ver1
ver1

Whole song

Interactive

More versions @911Tabs.com
3,064 views 1 this week
no commentswrite comment
1 2 3 4 5
please rate
Autoscroll
+/-
esc
set tempo
stop
Contributor
Tuning
D G C F A D
Hey! There's an official Ultimate Guitar app which is ideal
for learning songs when you're away from computer. Get the app
WARNING: You are trying to view
                                    content from Ultimate-Guitar.com
                                    in an unauthorized application,
                                    which is prohibited.

                                    Please use an official Ultimate
                                    Guitar Tabs application for iPhone,
                                    iPad or Android to access legitimate
                                    chords, guitar, bass, and drum tabs
                                    from Ultimate-Guitar.com database.

                                    Type "ultimate guitar tabs" in Apple
                                    App Store's or Android Market's
                                    search to find the application.
#----------------------------------PLEASE NOTE---------------------------------#
#This file is the author's own work and represents their interpretation of the #
#song. You may only use this file for private study, scholarship, or research. #
#------------------------------------------------------------------------------#

FIRE OF ROCK
As recorded by Racer X
(From the 1999 Album TECHNICAL DIFFICULTIES)

Transcribed by Boyd Ervin
        

Words by Jeff Martin Music by Paul Gilbert

F#5
2 4 x x x x

Gtr I (D G C F A D) - 'Untitled'
Gtr II (D G C F A D) - 'Untitled'
Gtr III (D G C F A D) - 'Untitled'

  Q=154
  Bm
 4/4
  Gtr I
    PM----|   PM----|   PM------|   PM----|   PM|   PM|
  E S S S S E S S S S E S S   S S E S S S S E S S E S S
|---------------------------|---------------------------|
|---------------------------|---------------------------|
|-4---------2---------4-----|-----2---------4-----4-----|
|-4---------2---------4-----|-----2---------4-----4-----|
|---2-2-2-2---2-2-2-2---2-2-|-2-2---2-2-2-2---2-2---2-2-|
|---------------------------|---------------------------|


    PM----|   PM----|   PM|
  E S S S S E S S S S E S S
|----------------------------|
|----------------------------|
|-2---------4---------2------|
|-2---------4---------2------|
|---2-2-2-2---2-2-2-2---2-2--|
|----------------------------|


  Bm
  PM|   PM----|   PM|   PM|     PM----|   PM----|   PM---
  S S E S S S S E S S E S S   E S S S S E S S S S E S S
|---------------------------|---------------------------|
|---------------------------|---------------------------|
|-----4---------2-----2-----|-4---------2---------4-----|
|-----4---------2-----2-----|-4---------2---------4-----|
|-2-2---2-2-2-2---2-2---2-2-|---2-2-2-2---2-2-2-2---2-2-|
|---------------------------|---------------------------|


 ---|   PM----|   PM|   PM|
  S S E S S S S E S S E S S
|-----------------------------|
|-----------------------------|
|-----2---------4-----4-------|
|-----2---------4-----4-------|
|-2-2---2-2-2-2---2-2---2-2---|
|-----------------------------|


  Bm
    PM----|   PM----|   PM---
  E S S S S E S S S S E S S
|---------------------------|
|---------------------------|
|-2---------4---------2-----|
|-2---------4---------2-----|
|---2-2-2-2---2-2-2-2---2-2-|
|---------------------------|


                              F#m7+11
 ---|   PM----|   PM|  ~~~      PM----|   PM----|   PM|
  S S E S S S S E S S  Q      E S S S S E S S S S E S S
|--------------------------||---------------------------|
|--------------------------||---------------------------|
|-----4---------2----------||-4---------2---------4-----|
|-----4---------2----------||-4---------2---------4-----|
|-2-2---2-2-2-2---2-2-[2]--||---------------------------|
|--------------------------||---2-2-2-2---2-2-2-2---2-2-|


  F#m7+11
  PM|   PM----|   PM|   PM|     PM----|   PM----|   PM---
  S S E S S S S E S S E S S   E S S S S E S S S S E S S
|---------------------------|---------------------------|
|---------------------------|---------------------------|
|-----2---------4-----4-----|-2---------4---------2-----|
|-----2---------4-----4-----|-2---------4---------2-----|
|---------------------------|---------------------------|
|-2-2---2-2-2-2---2-2---2-2-|---2-2-2-2---2-2-2-2---2-2-|


 ---|   PM----|   PM|   PM|
  S S E S S S S E S S E S S
|-----------------------------|
|-----------------------------|
|-----4---------2-----2-------|
|-----4---------2-----2-------|
|-----------------------------|
|-2-2---2-2-2-2---2-2---2-2---|


  F#m7+11
    PM----|   PM----|   PM------|   PM----|   PM|   PM|
  E S S S S E S S S S E S S   S S E S S S S E S S E S S
|---------------------------|---------------------------|
|---------------------------|---------------------------|
|-4---------2---------4-----|-----2---------4-----4-----|
|-4---------2---------4-----|-----2---------4-----4-----|
|---------------------------|---------------------------|
|---2-2-2-2---2-2-2-2---2-2-|-2-2---2-2-2-2---2-2---2-2-|


    PM----|   PM----|   PM------|   PM----|   PM|   PM|
  E S S S S E S S S S E S S   S S E S S S S E S S E S S
|---------------------------|------------------------------||
|---------------------------|------------------------------||
|-2---------4---------2-----|-----4---------2-----2--------||
|-2---------4---------2-----|-----4---------2-----2--------||
|---------------------------|------------------------------||
|---2-2-2-2---2-2-2-2---2-2-|-2-2---2-2-2-2---2-2---2-2----||


   Verse 1 & 2
    Esus4 E                                 Esus4                 E
                                PM------|      PM----|    PM----|
     Q  E E +H       +H     +E  S S E S S    E S S S S  E S S S S Q
||-----------------|----------------------|---------------------------|
||o-10----9-(9)----|-(9)----(9)-----------|-10---------10---------9---|
||---9----9-(9)----|-(9)----(9)-----------|--9----------9---------9---|
||---9----9-(9)----|-(9)----(9)-----------|--9----------9---------9---|
||o--7----7-(7)----|-(7)----(7)-----------|--7----------7---------7---|
||-----------------|------------0-0-0-0-0-|----0-0-0-0----0-0-0-0-----|


                    E     Esus4
                PM      PM
  +H.      +E   E   Q   E  E  +H        +H      +E   E     E     E
|-----------------|------------------|--------------------------------|
|-(9)------(9)----|-9-----10-(10)----|-(10)----(10)-10----------------|
|-(9)------(9)----|-9------9--(9)----|--(9)-----(9)--------9----------|
|-(9)------(9)----|-9------9--(9)----|--(9)-----(9)--------------9----|
|-(7)------(7)----|------------------|--------------------------------|
|--------------10-|----10------------|--------------------------------|
|
| Gtr II
|  W                W                    H       E   S  S  S  S  S  S
|-----------------|------------------|-----------------------14-17p14-|
|-----------------|------------------|--------------14h15h17----------|
|-----------------|------------------|--------------------------------|
|-----------------|------------------|--------------------------------|
|-----------------|------------------|--------------------------------|
|-----------------|------------------|--------------------------------|


  E                                    Esus4
         PM------|          PM------|
   E     S  S  S  S   E     S  S  S  S  Q
|--------------------------------------------------|
|--9------------------9----------------10----------|
|--9------------------9-----------------9----------|
|--9------------------9-----------------9----------|
|--------------------------------------------------|
|-------10-10-10-10--------10-10-10-10-------------|
|
|  S  S  S  S  S  S   E     S  S  S  S  S  S  S  S
|-16h17p16-14-16-17-/19b21-19-17-16----------------|
|-----------------------------------19-17-15-------|
|--------------------------------------------18s16-|
|--------------------------------------------------|
|--------------------------------------------------|
|--------------------------------------------------|


                                                PM|
   +H..                                         S  S
|----------------------------------------------------|
|-(10)-----------------------------------------------|
|--(9)-----------------------------------------------|
|--(9)-----------------------------------------------|
|----------------------------------------------------|
|-----------------------------------------------0--0-|
|
|   S    S  S  S  S  S  S  S  S  S  S  S  S  S  S  S
|----------------------------------------------------|
|--14h==15p14s12-14p12-------------------------------|
|----------------------14p13-14p13-11-13-11----------|
|-------------------------------------------14-12-11-|
|----------------------------------------------------|
|----------------------------------------------------|


  Esus4 E                                 Esus4                 E
                              PM------|      PM----|    PM----|
   Q  E E +H       +H     +E  S S E S S    E S S S S  E S S S S Q
|----------------|----------------------|--------------------------|
|-10----9-(9)----|-(9)----(9)-----------|-10---------10---------9--|
|--9----9-(9)----|-(9)----(9)-----------|--9----------9---------9--|
|--9----9-(9)----|-(9)----(9)-----------|--9----------9---------9--|
|--7----7-(7)----|-(7)----(7)-----------|--7----------7---------7--|
|----------------|------------0-0-0-0-0-|----0-0-0-0----0-0-0-0----|
|
|  ~~
|  W                W                      W
|----------------|----------------------|--------------------------|
|----------------|----------------------|--------------------------|
|----------------|----------------------|--------------------------|
|----------------|----------------------|--------------------------|
|-14-------------|----------------------|--------------------------|
|----------------|----------------------|--------------------------|


                   D    Dsus4
               PM     PM
  +H.      +E  E   Q  E E +H       +H     +E  E E E
|----------------|---------------|------------------|
|-(9)------(9)---|-7----8-(8)----|-(8)----(8)-8-----|
|-(9)------(9)---|-7----7-(7)----|-(7)----(7)---7---|
|-(9)------(9)---|-7----7-(7)----|-(7)----(7)-----7-|
|-(7)------(7)---|---------------|------------------|
|--------------8-|----8----------|------------------|


                                          Pre-Chorus
                                           $
  D                   Dsus4                F#m7
    PM----|   PM----|
  E S S S S E S S S S Q    +H.      Q      Q.   E +Q   Q
|------------------------|--------------||------0-(0)------|
|-7---------7---------8--|-(8)----------||-------------3---|
|-7---------7---------7--|-(7)----------||-----------------|
|-7---------7---------7--|-(7)----------||-----------------|
|------------------------|----------x\--||-----------------|
|---8-8-8-8---8-8-8-8----|--------------||-2---------------|


  G6               Asus4            Bm7
                                    PM--|   PM
  Q.   E +Q   Q    Q.   E +Q   Q    E E E E E E Q
|------0-(0)-----|------0-(0)-----|-----------------|
|-------------3--|-------------3--|-------5---7-----|
|----------------|----------------|-----7-------7\--|
|----------------|----------------|---7-----7-------|
|----------------|-0--------------|-----------------|
|-3--------------|----------------|-7---------------|


  F#m7             G6               Em9
                                    PM--------------------|
  Q.   E +Q   Q    Q.   E +Q   Q    E E E E E E E E   E E E E +Q    Q
|------0-(0)-----|------0-(0)-----|-----------------|-------2-(2)/-------||
|-------------3--|-------------3--|-------0---------|-3---3-3-(3)/-------||
|----------------|----------------|-----------2---2-|---2----------------||
|----------------|----------------|-----5---5---5---|--------------------||
|----------------|----------------|---2-------------|---------------x\---||
|-2--------------|-3--------------|-0---------------|--------------------||


 Chorus
  F#m7+11
    PM----|   PM----|   PM------|   PM----|   PM|   PM|
  E S S S S E S S S S E S S   S S E S S S S E S S E S S
|---------------------------|---------------------------|
|---------------------------|---------------------------|
|-4---------2---------4-----|-----2---------4-----4-----|
|-4---------2---------4-----|-----2---------4-----4-----|
|---------------------------|---------------------------|
|---2-2-2-2---2-2-2-2---2-2-|-2-2---2-2-2-2---2-2---2-2-|


    PM----|   PM----|   PM|
  E S S S S E S S S S E S S
|-----------------------------|
|-----------------------------|
|-2---------4---------2-------|
|-2---------4---------2-------|
|-----------------------------|
|---2-2-2-2---2-2-2-2---2-2---|


  F#m7+11
  PM|   PM----|   PM|   PM|     PM----|   PM----|   PM---
  S S E S S S S E S S E S S   E S S S S E S S S S E S S
|---------------------------|---------------------------|
|---------------------------|---------------------------|
|-----4---------2-----2-----|-4---------2---------4-----|
|-----4---------2-----2-----|-4---------2---------4-----|
|---------------------------|---------------------------|
|-2-2---2-2-2-2---2-2---2-2-|---2-2-2-2---2-2-2-2---2-2-|


 ---|   PM----|   PM|   PM|
  S S E S S S S E S S E S S
|-----------------------------|
|-----------------------------|
|-----2---------4-----4-------|
|-----2---------4-----4-------|
|-----------------------------|
|-2-2---2-2-2-2---2-2---2-2---|


                           To Coda
                                        F#m7+11
      PM--|     PM--|                     PM----|   PM----|   PM|
  E E E E E E E E   E E E E E E E E     E S S S S E S S S S E S S
|-----------------|------------------||---------------------------|
|-----------------|-----------------o||---------------------------|
|-----------------|------------------||-4---------2---------4-----|
|-4-2-------2-----|------------------||-4---------2---------4-----|
|-----5-4-2---5-4-|-2-0-5-4-2-------o||---------------------------|
|-----------------|-----------5-4-0--||---2-2-2-2---2-2-2-2---2-2-|


  F#m7+11
  PM|   PM----|   PM|   PM|     PM----|   PM----|   PM---
  S S E S S S S E S S E S S   E S S S S E S S S S E S S
|---------------------------|---------------------------|
|---------------------------|---------------------------|
|-----2---------4-----4-----|-2---------4---------2-----|
|-----2---------4-----4-----|-2---------4---------2-----|
|---------------------------|---------------------------|
|-2-2---2-2-2-2---2-2---2-2-|---2-2-2-2---2-2-2-2---2-2-|


 ---|   PM----|   PM|   PM|
  S S E S S S S E S S E S S
|-----------------------------|
|-----------------------------|
|-----4---------2-----2-------|
|-----4---------2-----2-------|
|-----------------------------|
|-2-2---2-2-2-2---2-2---2-2---|


  F#m7+11
    PM----|   PM----|   PM------|   PM----|   PM|   PM|       PM--|     PM
  E S S S S E S S S S E S S   S S E S S S S E S S E S S   E E E E E E E E
|---------------------------|---------------------------|-----------------|
|---------------------------|---------------------------|-----------------|
|-4---------2---------4-----|-----2---------4-----4-----|-----------------|
|-4---------2---------4-----|-----2---------4-----4-----|-4-2-------2-----|
|---------------------------|---------------------------|-----5-4-2---5-4-|
|---2-2-2-2---2-2-2-2---2-2-|-2-2---2-2-2-2---2-2---2-2-|-----------------|


                    Harmony Solo
                     F#5
  Gtr III
  W                   Q           H.
                      |
                      /

  PM
  E E E E E E E E     S  S  S  S  S  S  S  S  S  S  S  S  S  S  S  S
|-----------------||-------------------------------------------------|
|-----------------||-------------------------------------------------|
|-----------------||-------------------------------------------------|
|-----------------||----------------------------16-19p16-18p16----16-|
|-2-0-5-4-2-------||----16-19p16-17p16----16-17----------------19----|
|-----------5-4-0-||-17----------------19----------------------------|
|
| Gtr II
| W                   S  S  S  S  S  S  S  S  S  S  S  S  S  S  S  S
|-----------------||-------------------------------------------------|
|-----------------||-------------------------------------------------|
|-----------------||-------------------------------------------------|
|-----------------||----------------------------12-16p12-14p12----12-|
|-----------------||----12-16-12-14p12----12-14----------------16----|
|-----------------||-14----------------16----------------------------|


   W
   S  S  S  S  S  S  S  S  S  S  S  S  S  S  S  S
|----------------------------17-21p17-19p17----17--|
|-------------------------19----------------21-----|
|----16-19p16-18p16----16--------------------------|
|-18----------------19-----------------------------|
|--------------------------------------------------|
|--------------------------------------------------|
|
|  S  S  S  S  S  S  S  S  S  S  S  S  S  S  S  S
|----------------------------14-17p14-16p14----14--|
|-------------------------14----------------17-----|
|----13-16p13-14p13----13--------------------------|
|-14----------------16-----------------------------|
|--------------------------------------------------|
|--------------------------------------------------|


  F#m                  E
                        ~~~~~~~~~~
   Q.       E  +E   E   Q     +H      S  S  S  S  S  S  S  S
|-19b21====19-(19)-20r-19--|-(19)----19p17----------17-------|
|--------------------------|---------------21p17-19----21p17-|
|--------------------------|---------------------------------|
|--------------------------|---------------------------------|
|--------------------------|---------------------------------|
|--------------------------|---------------------------------|
|
|                       ~~~~~~~~~~
|  Q.       E  +E   E   Q     +H      S  S  S  S  S  S  S  S
|-16b17====16-(16)-18r-16--|-(16)----16p14----------14-------|
|--------------------------|---------------17p14-15----17p14-|
|--------------------------|---------------------------------|
|--------------------------|---------------------------------|
|--------------------------|---------------------------------|
|--------------------------|---------------------------------|


                       D
                        ~~~~~~~~~~
   Q.       E  +E   E   Q     +H      S  S  S  S  S  S  S  S
|-17b19====17-(17)-19r-17--|-(17)----17p16----------16-------|
|--------------------------|---------------19p15-17----19p15-|
|--------------------------|---------------------------------|
|--------------------------|---------------------------------|
|--------------------------|---------------------------------|
|--------------------------|---------------------------------|
|
|                       ~~~~~~~~~~
|  Q.       E  +E   E   Q     +H      S  S  S  S  S  S  S  S
|-14b16====14-(14)-15r-14--|-(14)----14p12----------12-------|
|--------------------------|---------------15p12-14----15p12-|
|--------------------------|---------------------------------|
|--------------------------|---------------------------------|
|--------------------------|---------------------------------|
|--------------------------|---------------------------------|


  D                     D#m7b5
                                ~~~~
   Q.       E  +E     E  Q     +H      S  S  S  S  S  S  S  S
|-16b17====16-(16)r/-19-21--|-(21)----17-16-14----------------|
|---------------------------|------------------17-15p14-------|
|---------------------------|---------------------------16-14-|
|---------------------------|---------------------------------|
|---------------------------|---------------------------------|
|---------------------------|---------------------------------|
|
|                               ~~~~
|  Q.       E  +E     E  Q     +H      S  S  S  S  S  S  S  S
|-12b14====12-(12)r/-16-17--|-(17)----14-12-10----------------|
|---------------------------|------------------14-12p10-------|
|---------------------------|---------------------------13-11-|
|---------------------------|---------------------------------|
|---------------------------|---------------------------------|
|---------------------------|---------------------------------|


  E
                     |--3--|  |--3--|
   S  S  S  S  S  S  S  S  S  S  S  S  S  S  S  S  S  S
|----------12-16p12h14h16p14h16p14p12----12-------------|
|-------------------------------------------------------|
|-13h14h16----------------------------16----16-14-13----|
|----------------------------------------------------14-|
|-------------------------------------------------------|
|-------------------------------------------------------|
|
|                    |--3--|  |--3--|
|  S  S  S  S  S  S  S  S  S  S  S  S  S  S  S  S  S  S
|-----------9-12--9h10h12p10h12p10p=9-----9-------------|
|-------------------------------------------------------|
|--9h11h13----------------------------13----13-11--9----|
|----------------------------------------------------11-|
|-------------------------------------------------------|
|-------------------------------------------------------|


  D              C#m              G#m
                                                         ~~~~~
   E.  S  +E   E  E.  S  +E   E    E     +E   E  E      +Q     S  S  S  S
|-------------------------------|-18b19r(18)-16---------------------------|
|-------------------------------|-----------------------------17p16-------|
|-18--14-(14)----16--13-(13)----|---------------18b20==(18)r--------18p16-|
|-------------16-------------14-|-----------------------------------------|
|-------------------------------|-----------------------------------------|
|-------------------------------|-----------------------------------------|
|
|                                                        ~~~~~
|  E.  S  +E   E  E.  S  +E   E    E     +E   E  E      +Q     S  S  S  S
|-------------------------------|-14b16r(14)-11---------------------------|
|-------------------------------|-----------------------------14p12-------|
|-14--11-(11)----13---9--(9)----|---------------15b16==(15)r--------15p13-|
|-------------12-------------11-|-----------------------------------------|
|-------------------------------|-----------------------------------------|
|-------------------------------|-----------------------------------------|


                       F#     E
   E  T  T  T  T  E  E  Q   E  E
|--------------------------------|
|-19-17h19p17p16--------------17-|
|----------------18-16-15--16----|
|--------------------------------|
|--------------------------------|
|--------------------------------|
|
|  E  T  T  T  T  E  E  Q   E  E
|--------------------------------|
|-16-14h16p14p13-----------------|
|----------------15-13-----13-16-|
|----------------------16--------|
|--------------------------------|
|--------------------------------|


                              C#m
                                                    ~~~~~
   +W            +W            E     +E  E  E      +Q     S S  S  S
|-------------|-------------|-11b12r(11)-9--------------------------|
|-(17)--------|-(17)--------|----------------------------10p9-------|
|-------------|-------------|--------------11b13==(11)r-------11p=9-|
|-------------|-------------|---------------------------------------|
|-------------|-------------|---------------------------------------|
|-------------|-------------|---------------------------------------|
|
|  +W             W            E     +E  E  E      +Q     S S  S  S
|-------------|-------------|---------------------------------------|
|-------------|-------------|-12b14r(12)-9--------------------------|
|-(16)--------|-[16]--------|----------------------------11p9-------|
|-------------|-------------|--------------13b14==(13)r-------13p11-|
|-------------|-------------|---------------------------------------|
|-------------|-------------|---------------------------------------|


                      B     A
                                   ~~~~               ~~
   E  T  T  T T  E  E Q   E  E    +W           a      W
|------------------------------|-------------------|-17----||
|-12-10h12p10p9-------------10-|-(10)--------(10)/-|-------||
|---------------11--9-8---9----|-------------------|-------||
|------------------------------|-------------------|-------||
|------------------------------|-------------------|-------||
|------------------------------|-------------------|-------||
|
|                                  ~~~~               ~~
|  E  T  T  T T  E  E Q   E  E    +W           a      W
|------------------------------|-------------------|-------||
|------------------------------|-------------------|-16----||
|-13-11h13p11p9--------------9-|--(9)---------(9)/-|-------||
|---------------13-11-9--11----|-------------------|-------||
|------------------------------|-------------------|-------||
|------------------------------|-------------------|-------||


 Post-Solo
  Bm
    PM----|   PM----|   PM------|   PM----|   PM|   PM|
  E S S S S E S S S S E S S   S S E S S S S E S S E S S
|---------------------------|---------------------------|
|---------------------------|---------------------------|
|-4---------2---------4-----|-----2---------4-----4-----|
|-4---------2---------4-----|-----2---------4-----4-----|
|---2-2-2-2---2-2-2-2---2-2-|-2-2---2-2-2-2---2-2---2-2-|
|---------------------------|---------------------------|


    PM----|   PM----|   PM|
  E S S S S E S S S S E S S
|-----------------------------|
|-----------------------------|
|-2---------4---------2-------|
|-2---------4---------2-------|
|---2-2-2-2---2-2-2-2---2-2---|
|-----------------------------|


  Bm
  PM|   PM----|   PM|   PM|     PM----|   PM----|   PM---
  S S E S S S S E S S E S S   E S S S S E S S S S E S S
|---------------------------|---------------------------|
|---------------------------|---------------------------|
|-----4---------2-----2-----|-4---------2---------4-----|
|-----4---------2-----2-----|-4---------2---------4-----|
|-2-2---2-2-2-2---2-2---2-2-|---2-2-2-2---2-2-2-2---2-2-|
|---------------------------|---------------------------|


 ---|   PM----|   PM|   PM|
  S S E S S S S E S S E S S
|-----------------------------|
|-----------------------------|
|-----2---------4-----4-------|
|-----2---------4-----4-------|
|-2-2---2-2-2-2---2-2---2-2---|
|-----------------------------|


  Bm
    PM----|   PM----|   PM---
  E S S S S E S S S S E S S
|---------------------------|
|---------------------------|
|-2---------4---------2-----|
|-2---------4---------2-----|
|---2-2-2-2---2-2-2-2---2-2-|
|---------------------------|


                              F#m7+11
 ---|   PM----|   PM|  ~~~      PM----|   PM----|   PM|
  S S E S S S S E S S  Q      E S S S S E S S S S E S S
|--------------------------||---------------------------|
|--------------------------||---------------------------|
|-----4---------2----------||-4---------2---------4-----|
|-----4---------2----------||-4---------2---------4-----|
|-2-2---2-2-2-2---2-2-[2]--||---------------------------|
|--------------------------||---2-2-2-2---2-2-2-2---2-2-|


  PM|   PM----|   PM|   PM|     PM----|   PM----|   PM---
  S S E S S S S E S S E S S   E S S S S E S S S S E S S
|---------------------------|---------------------------|
|---------------------------|---------------------------|
|-----2---------4-----4-----|-2---------4---------2-----|
|-----2---------4-----4-----|-2---------4---------2-----|
|---------------------------|---------------------------|
|-2-2---2-2-2-2---2-2---2-2-|---2-2-2-2---2-2-2-2---2-2-|


 ---|   PM----|   PM|   PM|
  S S E S S S S E S S E S S
|-----------------------------|
|-----------------------------|
|-----4---------2-----2-------|
|-----4---------2-----2-------|
|-----------------------------|
|-2-2---2-2-2-2---2-2---2-2---|


  F#m7+11
    PM----|   PM----|   PM------|   PM----|   PM|   PM|
  E S S S S E S S S S E S S   S S E S S S S E S S E S S
|---------------------------|---------------------------|
|---------------------------|---------------------------|
|-4---------2---------4-----|-----2---------4-----4-----|
|-4---------2---------4-----|-----2---------4-----4-----|
|---------------------------|---------------------------|
|---2-2-2-2---2-2-2-2---2-2-|-2-2---2-2-2-2---2-2---2-2-|


    PM----|   PM----|   PM------|   PM----|
  E S S S S E S S S S E S S   S S E S S S S Q  Q
|---------------------------|---------------------||
|---------------------------|---------------------||
|-2---------4---------2-----|-----4---------2-----||
|-2---------4---------2-----|-----4---------2-----||
|---------------------------|---------------------||
|---2-2-2-2---2-2-2-2---2-2-|-2-2---2-2-2-2-------||


 Verse 3
  Esus4 E                                 Esus4                 E
                              PM------|      PM----|    PM----|
   Q  E E +H       +H     +E  S S E S S    E S S S S  E S S S S Q
|----------------|----------------------|--------------------------|
|-10----9-(9)----|-(9)----(9)-----------|-10---------10---------9--|
|--9----9-(9)----|-(9)----(9)-----------|--9----------9---------9--|
|--9----9-(9)----|-(9)----(9)-----------|--9----------9---------9--|
|--7----7-(7)----|-(7)----(7)-----------|--7----------7---------7--|
|----------------|------------0-0-0-0-0-|----0-0-0-0----0-0-0-0----|


                    E     Esus4
                PM      PM
  +H.      +E   E   Q   E  E  +H        +H      +E   E E  E
|-----------------|------------------|----------------------|
|-(9)------(9)----|-9-----10-(10)----|-(10)----(10)-10------|
|-(9)------(9)----|-9------9--(9)----|--(9)-----(9)----9----|
|-(9)------(9)----|-9------9--(9)----|--(9)-----(9)-------9-|
|-(7)------(7)----|------------------|----------------------|
|--------------10-|----10------------|----------------------|
|
| Gtr II
|  W                W                    H       Q     Q
|-----------------|------------------|----------------------|
|-----------------|------------------|----------------------|
|-----------------|------------------|----------------------|
|-----------------|------------------|----------------------|
|-----------------|------------------|----------------------|
|-----------------|------------------|-----------------x\---|


  E                                   Esus4
         PM------|         PM------|
   E     S  S  S  S  E     S  S  S  S  Q
|-------------------------------------------------|
|--9-----------------9----------------10----------|
|--9-----------------9-----------------9----------|
|--9-----------------9-----------------9----------|
|-------------------------------------------------|
|-------10-10-10-10-------10-10-10-10-------------|
|
|  PM------------------|
|  S  S  S  S  S  S  S  S  S  S  S  S  S  S  S  S
|-------------------------------------------------|
|-------------------------------------------------|
|----------------------------------13-16-13-14-16-|
|-------------------------12-14-16----------------|
|----------11-14-11-12-14-------------------------|
|-10-12-14----------------------------------------|


                                                      PM|
   +H..                                               S  S
|-----------------------------------------------------------|
|-(10)------------------------------------------------------|
|--(9)------------------------------------------------------|
|--(9)------------------------------------------------------|
|-----------------------------------------------------------|
|-----------------------------------------------------0--0--|
|
|                             |------6-------|
|   S    S  S  S  S  S  S  S  S  S  S  S  S  S  S  S  S  S
|-------------16-19-16-17-19-17h19p17p16p14h16-14-----------|
|--15---17-19-------------------------------------17-15-14--|
|-----------------------------------------------------------|
|-----------------------------------------------------------|
|-----------------------------------------------------------|
|-----------------------------------------------------------|


  Esus4 E                                 Esus4                 E
                              PM------|      PM----|    PM----|
   Q  E E +H       +H     +E  S S E S S    E S S S S  E S S S S Q
|----------------|----------------------|--------------------------|
|-10----9-(9)----|-(9)----(9)-----------|-10---------10---------9--|
|--9----9-(9)----|-(9)----(9)-----------|--9----------9---------9--|
|--9----9-(9)----|-(9)----(9)-----------|--9----------9---------9--|
|--7----7-(7)----|-(7)----(7)-----------|--7----------7---------7--|
|----------------|------------0-0-0-0-0-|----0-0-0-0----0-0-0-0----|
|
|  ~~
|  W                W                      W
|----------------|----------------------|--------------------------|
|----------------|----------------------|--------------------------|
|-16-------------|----------------------|--------------------------|
|----------------|----------------------|--------------------------|
|----------------|----------------------|--------------------------|
|----------------|----------------------|--------------------------|


                   D    Dsus4
               PM     PM
  +H.      +E  E   Q  E E +H       +H     +E  E E E
|----------------|---------------|------------------|
|-(9)------(9)---|-7----8-(8)----|-(8)----(8)-8-----|
|-(9)------(9)---|-7----7-(7)----|-(7)----(7)---7---|
|-(9)------(9)---|-7----7-(7)----|-(7)----(7)-----7-|
|-(7)------(7)---|---------------|------------------|
|--------------8-|----8----------|------------------|


                           D.S. al Coda
  D                   Dsus4
    PM----|   PM----|
  E S S S S E S S S S Q    +H.      Q
|------------------------|--------------||
|-7---------7---------8--|-(8)----------||
|-7---------7---------7--|-(7)----------||
|-7---------7---------7--|-(7)----------||
|------------------------|----------x\--||
|---8-8-8-8---8-8-8-8----|--------------||


   Coda
    &
    F#m7+11
      PM----|   PM----|   PM---
    E S S S S E S S S S E S S
||----------------------------|
||o---------------------------|
||--4---------2---------4-----|
||--4---------2---------4-----|
||o---------------------------|
||----2-2-2-2---2-2-2-2---2-2-|


 ---|   PM----|   PM|   PM|     PM----|   PM----|   PM|
  S S E S S S S E S S E S S   E S S S S E S S S S E S S
|---------------------------|----------------------------|
|---------------------------|----------------------------|
|-----2---------4-----4-----|-2---------4---------2------|
|-----2---------4-----4-----|-2---------4---------2------|
|---------------------------|----------------------------|
|-2-2---2-2-2-2---2-2---2-2-|---2-2-2-2---2-2-2-2---2-2--|


  F#m7+11
  PM|   PM----|   PM|   PM|     PM----|   PM----|   PM---
  S S E S S S S E S S E S S   E S S S S E S S S S E S S
|---------------------------|---------------------------|
|---------------------------|---------------------------|
|-----4---------2-----2-----|-4---------2---------4-----|
|-----4---------2-----2-----|-4---------2---------4-----|
|---------------------------|---------------------------|
|-2-2---2-2-2-2---2-2---2-2-|---2-2-2-2---2-2-2-2---2-2-|


 ---|   PM----|   PM|   PM|
  S S E S S S S E S S E S S
|-----------------------------|
|-----------------------------|
|-----2---------4-----4-------|
|-----2---------4-----4-------|
|-----------------------------|
|-2-2---2-2-2-2---2-2---2-2---|


                    1.                     2.
  F#m7+11
      PM--|     PM--|                      PM
  E E E E E E E E   E E E E E. S +E  E     E E E E E E E E
|-----------------|---------------------||-----------------|
|-----------------|--------------------o||-----------------|
|-----------------|---------------------||-----------------|
|-4-2-------2-----|---------------------||-----------------|
|-----5-4-2---5-4-|-2-0-5-4-2----------o||-2-0-5-4-2-------|
|-----------------|------------5-(5)-0--||-----------5-4-0-|


  F#m7+11
      PM--|     PM--|                     PM--|     PM--|
  E E E E E E E E   E E E E E E E E   E E E E E E E E   E E E E E E E E
|-----------------|-----------------|-----------------|------------------||
|-----------------|-----------------|-----------------|------------------||
|-----------------|-----------------|-----------------|------------------||
|-4-2-------2-----|-----------------|-4-2-------2-----|------------------||
|-----5-4-2---5-4-|-2-0-5-4-2-------|-----5-4-2---5-4-|-2-0-5-4-2--------||
|-----------------|-----------5-4-0-|-----------------|-----------5-4-0--||
|
| Gtr II
|     PM--|     PM--|                     PM--|     PM--|
| E E E E E E E E   E E E E E E E E   E E E E E E E E   E E E E E E E E
|-----------------|-----------------|-----------------|------------------||
|-----------------|-----------------|-----------------|------------------||
|-----------------|-----------------|-----------------|------------------||
|-7-6-4-----6-4---|-----4-----------|-7-6-4-----6-4---|-----4------------||
|-------7-5-----7-|-5-4---7-5-4-----|-------7-5-----7-|-5-4---7-5-4------||
|-----------------|-------------7-5-|-----------------|-------------7-5--||
|
| Gtr III
|                                         PM--|     PM--|
| W                 W                 E E E E E E E E   E E E E E E E E
|-----------------|-----------------|-----------------|------------------||
|-----------------|-----------------|-----------------|------------------||
|-----------------|-----------------|-6-4-------4-----|------------------||
|-----------------|-----------------|-----7-6-4---7-6-|-4---7-6-4--------||
|-----------------|-----------------|-----------------|---7-------7-5-4--||
|-----------------|-----------------|-----------------|------------------||


 Ending
  F#                      F#5
  Gtr III
   W           W           W           W           W
                           |           |           |
                           /           /           /

  Gtrs I, II
   W           W           W           W           W
|-----------|-----------|-----------|-----------|--------*|
|-----------|-----------|-----------|-----------|--------*|
|-11--------|-11--------|-11--------|-11--------|-11\----*|
|-11--------|-11--------|-11--------|-11--------|-11\----*|
|--9--------|--9--------|--9--------|--9--------|--9\----*|
|-----------|-----------|-----------|-----------|--------*|



Duration Legend
---------------
W - whole; H - half; Q - quarter; E - 8th; S - 16th; T - 32nd; X - 64th; a - acciaccatura
+ - note tied to previous; . - note dotted; .. - note double dotted
Uncapitalized letters represent notes that are staccato (1/2 duration)
Irregular groupings are notated above the duration line
Duration letters will always appear directly above the note/fret number it represents the
duration for.  Duration letters with no fret number below them represent rests.  Multi-
bar rests are notated in the form Wxn, where n is the number of bars to rest for.  Low
melody durations appear below the staff

Tablature Legend
----------------
 h   - hammer-on
 p   - pull-off
 b   - bend
 pb  - pre-bend
 r   - bend release (if no number after the r, then release immediately)
 /\  - slide into or out of (from/to "nowhere")
 s   - legato slide
 S   - shift slide
<n> - natural harmonic
[n]  - artificial harmonic
n(n) - tapped harmonic
 ~   - vibrato
 tr  - trill
 T   - tap
 TP  - trem. picking
 PM  - palm muting
\n/  - tremolo bar dip; n = amount to dip
 \n  - tremolo bar down
 n/  - tremolo bar up
/n\  - tremolo bar inverted dip
 =   - hold bend; also acts as connecting device for hammers/pulls
 <> - volume swell (louder/softer)
 x   - on rhythm slash represents muted slash
 o   - on rhythm slash represents single note slash

Misc Legend
-----------
 |  - bar
||  - double bar
||o - repeat start
o|| - repeat end
*|  - double bar (ending)
 :  - bar (freetime)
 $  - Segno
 &  - Coda
Tempo markers - <E/E./Q/Q./H/H.> = BPM(8/16=s8/s16), where s8 = swing 8ths, s16 = swing 16ths

comments
We did not receive enough feedback on this tab! Please rate:
print report bad tab
1 2 3 4 5
I want to post or [tab]
guest
You may want to rate the tab now too:
select rating
Please do not post tabs as comments. Select "correction" instead!