Oops, an error
Loading. Please wait.

Scarified Tab

ver1
ver1

Whole song

More versions @911Tabs.com
44,238 views 23 this week
7 commentsread comments
1 2 3 4 5
not so good
x 9
Autoscroll
+/-
esc
set tempo
stop
Contributor
Hey! There's an official Ultimate Guitar app which is ideal
for learning songs when you're away from computer. Get the app
WARNING: You are trying to view
                                    content from Ultimate-Guitar.com
                                    in an unauthorized application,
                                    which is prohibited.

                                    Please use an official Ultimate
                                    Guitar Tabs application for iPhone,
                                    iPad or Android to access legitimate
                                    chords, guitar, bass, and drum tabs
                                    from Ultimate-Guitar.com database.

                                    Type "ultimate guitar tabs" in Apple
                                    App Store's or Android Market's
                                    search to find the application.
Scarified - Racer X

this is the scarified tab

Converted by Thomas.Vallee@wanadoo.fr

                                                                     
E||----------------------------------|------------------------------|
B||----------------------------------|------------------------------|
G||----------------------------------|-----------------------5-7~---|
D||----------------------------------|-----------------5-7-8--------|
A||--5-5-5-5-5-5-5-5---------3-5--5--|-----------5-6-8--------------|
E||--3-3-3-3-3-3-3-3-3-3-5-6------3--|----3--6-8--------------------|

                                                                   
|----------------------------------|-------------------------------|
|----------------------------------|-------------------------------|
|----------------------------------|-------8-7-5-------------------|
|----------------------------------|-------------8-7-5-------------|
|--5-5-5-5-5-5-5-5---------3-5--5--|-------------------8-6-5-------|
|--3-3-3-3-3-3-3-3-3-3-5-6------3--|----3--------------------8-6-5-|

                                                                 
|----------------------------------|------------------------------|
|----------------------------------|------------------------------|
|----------------------------------|-----------------------5-7~---|
|----------------------------------|-----------------5-7-8--------|
|--5-5-5-5-5-5-5-5---------3-5--5--|-----------5-6-8--------------|
|--3-3-3-3-3-3-3-3-3-3-5-6------3--|----3--6-8--------------------|

                                                                     
|----------------------------------|---------------------------------|
|----------------------------------|---------------------------------|
|----------------------------------|-----------------------8-10\-----|
|----------------------------------|---------------8-10-12---10\-----|
|--5-5-5-5-5-5-5-5---------3-5--5--|-------8-10-12-------------------|
|--3-3-3-3-3-3-3-3-3-3-5-6------3--|----3----------------------------|

                                                   
|--18p15----------------15-18p15-------------------|
|--------16----------16----------17----------------|
|-----------15----15----------------17-15p12-------|
|--------------17----------------------------14----|
|-----------------------------------------------15-|
|--------------------------------------------------|
|
|--22p18-15----------15-18-22-18p15----------------|
|-----------16----16----------------17-------------|
|--------------15----------------------19p15-------|
|--------------------------------------------17----|
|-----------------------------------------------19-|
|--------------------------------------------------|

                                                                                  
|--------------13-17p13-----17p14-------------------------14-|--15----------------|
|-----------13----------13--------16-------------------16----|--------------------|
|--------14--------------------------17p14-------14-17-------|--------------------|
|-----15-----------------------------------16-16-------------|--------------------|
|--15--------------------------------------------------------|--------------------|
|------------------------------------------------------------|--------------------|
|
|--------------17-20p17-----20p17-------------------------17-|--18----------------|
|-----------18----------18--------19-------------------19----|--------------------|
|--------17--------------------------20p17-------17-20-------|--------------------|
|--15-19-----------------------------------19-19-------------|--------------------|
|------------------------------------------------------------|--------------------|
|------------------------------------------------------------|--------------------|


|--------------15\---|--------------------------------------------------|
|--------------------|--11----------11----15-11-------11-13-11-15-11----|
|--------------------|-----12-11-12----12-------12-14----------------12-|
|--------------------|--------------------------------------------------|
|--------------------|--------------------------------------------------|
|--------------------|--------------------------------------------------|
|
|--------------18\---|--10----------10----15-10-------10-11-10-15-10----|
|--------------------|-----11-10-11----11-------11-13----------------11-|
|--------------------|--------------------------------------------------|
|--------------------|--------------------------------------------------|
|--------------------|--------------------------------------------------|
|--------------------|--------------------------------------------------|

                                                   
|--------------------------------------------------|--------------------------13-12-13----------------|
|--16----------16----20-16-------16-18-16-20-16----|--------------------13-------------13----13-------|
|-----17-16-17----17-------17-19----------------17-|--14----------14-------14-------------14----14----|
|--------------------------------------------------|-----15-14-15----15----------------------------15-|
|--------------------------------------------------|--------------------------------------------------|
|--------------------------------------------------|--------------------------------------------------|
|
|--15----------15----20-15-------15-16-15-20-15----|--------------------13----17-15-17-13----13-------|
|-----16-15-16----16-------16-18----------------16-|--13----------13-------13-------------13----13----|
|--------------------------------------------------|-----14-12-14----14----------------------------14-|
|--------------------------------------------------|--------------------------------------------------|
|--------------------------------------------------|--------------------------------------------------|
|--------------------------------------------------|--------------------------------------------------|

                                                   
|--------------------------18-17-18----------------|--------------------------11-10-11----------------|
|--------------------18-------------18----18-------|--------------------11-------------11----11-------|
|--19----------19-------19-------------19----19----|--12----------12-------12-------------12----12----|
|-----20-19-20----20----------------------------20-|-----13-12-13----13----------------------------13-|
|--------------------------------------------------|--------------------------------------------------|
|--------------------------------------------------|--------------------------------------------------|
|
|--------------------18----22-20-22-18----18-------|--------------------11----15-13-15-11----11-------|
|--18----------18-------18-------------18----18----|--11----------11-------11-------------11----11----|
|-----19-17-19----19----------------------------19-|-----12-10-12----12----------------------------12-|
|--------------------------------------------------|--------------------------------------------------|
|--------------------------------------------------|--------------------------------------------------|
|--------------------------------------------------|--------------------------------------------------|

                                                   
|--------------------------17-15-17----------------|--------------------------10-9-10----------------|
|--13----------13----16-13----------16-13-16-13----|--------------------10------------10----10-------|
|-----14-12-14----14----------------------------14-|--11----------11-------11------------11----11----|
|--------------------------------------------------|-----12-11-12----12---------------------------12-|
|--------------------------------------------------|-------------------------------------------------|
|--------------------------------------------------|-------------------------------------------------|
|
|--------------------15----20-18-20-15----15-------|-------------------10----14-12-14-10----10-------|
|--16----------16-------16-------------16----16----|--10---------10-------10-------------10----10----|
|-----17-15-17----17----------------------------17-|-----11-9-11----11----------------------------11-|
|--------------------------------------------------|-------------------------------------------------|
|--------------------------------------------------|-------------------------------------------------|
|--------------------------------------------------|-------------------------------------------------|

                                                   
|--------------------------15-13-11----------------|
|--11----------11----15-11----------15-13-11-------|
|-----12-11-12----12-------------------------14-12-|
|--------------------------------------------------|
|--------------------------------------------------|
|--------------------------------------------------|
|
|--10----------10----15-10-18-17-15----------------|
|-----11-10-11----11----------------18-16-15-------|
|--------------------------------------------17-15-|
|--------------------------------------------------|
|--------------------------------------------------|
|--------------------------------------------------|                                               
|--------------------------10-9-10----------------|--------------------------15-13----------15\---|
|--------------------10------------10----10-------|--11----------11----15-11-------15-13----------|
|--11----------11-------11------------11----11----|-----12-11-12----12-------------------15-------|
|-----12-11-12----12---------------------------12-|-----------------------------------------------|
|-------------------------------------------------|-----------------------------------------------|
|-------------------------------------------------|-----------------------------------------------|
|
|-------------------10----14-12-14-10----10-------|--10----------10----15-10-18-17-15-------18\---|
|--10---------10-------10-------------10----10----|-----11-10-11----11----------------18-15-------|
|-----11-9-11----11----------------------------11-|-----------------------------------------------|
|-------------------------------------------------|-----------------------------------------------|
|-------------------------------------------------|-----------------------------------------------|
|-------------------------------------------------|-----------------------------------------------|

                                                                                         
|--------------------------------------------------------------------------|
|--------------------------------------------------------------------------|
|-----------------------19p17h19h20p19-------------------17p15-17h19p17p15-|
|--17h19p17h19-20p19p17----------------17p15h17h19p17p15-------------------|
|--------------------------------------------------------------------------|
|--------------------------------------------------------------------------|


|-----------------------------------------------------------------|
|-----------------------------------------------------------------|
|------------------15p14h15h17p15h16-17p15h17h19p17p15-19p17-19~--|
|--15p13--17p15p13------------------------------------------------|
|-----------------------------------------------------------------|
|-----------------------------------------------------------------|


|--18p15----------------15-18p15-------------------|
|--------16----------16----------17----------------|
|-----------15----15----------------17-15p12-------|
|--------------17----------------------------14----|
|-----------------------------------------------15-|
|--------------------------------------------------|
|
|--22p18-15----------15-18-22-18p15----------------|
|-----------16----16----------------17-------------|
|--------------15----------------------19p15-------|
|--------------------------------------------17----|
|-----------------------------------------------19-|
|--------------------------------------------------|

                                                                                 
|--------------13-17p13-----17p14-------------------------14-|--15----------------|
|-----------13----------13--------16-------------------16----|--------------------|
|--------14--------------------------17p14-------14-17-------|--------------------|
|-----15-----------------------------------16-16-------------|--------------------|
|--15--------------------------------------------------------|--------------------|
|------------------------------------------------------------|--------------------|
|
|--------------17-20p17-----20p17-------------------------17-|--18----------------|
|-----------18----------18--------19-------------------19----|--------------------|
|--------17--------------------------20p17-------17-20-------|--------------------|
|--15-19-----------------------------------19-19-------------|--------------------|
|------------------------------------------------------------|--------------------|
|------------------------------------------------------------|--------------------|

                                                                        
|--------------15\---|--------------------------------------------------|
|--------------------|--11----------11----15-11-------11-13-11-15-11----|
|--------------------|-----12-11-12----12-------12-14----------------12-|
|--------------------|--------------------------------------------------|
|--------------------|--------------------------------------------------|
|--------------------|--------------------------------------------------|
|
|--------------18\---|--10----------10----15-10-------10-11-10-15-10----|
|--------------------|-----11-10-11----11-------11-13----------------11-|
|--------------------|--------------------------------------------------|
|--------------------|--------------------------------------------------|
|--------------------|--------------------------------------------------|
|--------------------|--------------------------------------------------|

                                                   
|--------------------------------------------------|--------------------------13-12-13----------------|
|--16----------16----20-16-------16-18-16-20-16----|--------------------13-------------13----13-------|
|-----17-16-17----17-------17-19----------------17-|--14----------14-------14-------------14----14----|
|--------------------------------------------------|-----15-14-15----15----------------------------15-|
|--------------------------------------------------|--------------------------------------------------|
|--------------------------------------------------|--------------------------------------------------|
|
|--15----------15----20-15-------15-16-15-20-15----|--------------------13----17-15-17-13----13-------|
|-----16-15-16----16-------16-18----------------16-|--13----------13-------13-------------13----13----|
|--------------------------------------------------|-----14-12-14----14----------------------------14-|
|--------------------------------------------------|--------------------------------------------------|
|--------------------------------------------------|--------------------------------------------------|
|--------------------------------------------------|--------------------------------------------------|

                                                   
|--------------------------18-17-18----------------|--------------------------11-10-11----------------|
|--------------------18-------------18----18-------|--------------------11-------------11----11-------|
|--19----------19-------19-------------19----19----|--12----------12-------12-------------12----12----|
|-----20-19-20----20----------------------------20-|-----13-12-13----13----------------------------13-|
|--------------------------------------------------|--------------------------------------------------|
|--------------------------------------------------|--------------------------------------------------|
|
|--------------------18----22-20-22-18----18-------|--------------------11----15-13-15-11----11-------|
|--18----------18-------18-------------18----18----|--11----------11-------11-------------11----11----|
|-----19-17-19----19----------------------------19-|-----12-10-12----12----------------------------12-|
|--------------------------------------------------|--------------------------------------------------|
|--------------------------------------------------|--------------------------------------------------|
|--------------------------------------------------|--------------------------------------------------|

                                                   
|--------------------------17-15-17----------------|--------------------------10-9-10----------------|
|--13----------13----16-13----------16-13-16-13----|--------------------10------------10----10-------|
|-----14-12-14----14----------------------------14-|--11----------11-------11------------11----11----|
|--------------------------------------------------|-----12-11-12----12---------------------------12-|
|--------------------------------------------------|-------------------------------------------------|
|--------------------------------------------------|-------------------------------------------------|
|
|--------------------15----20-18-20-15----15-------|-------------------10----14-12-14-10----10-------|
|--16----------16-------16-------------16----16----|--10---------10-------10-------------10----10----|
|-----17-15-17----17----------------------------17-|-----11-9-11----11----------------------------11-|
|--------------------------------------------------|-------------------------------------------------|
|--------------------------------------------------|-------------------------------------------------|
|--------------------------------------------------|-------------------------------------------------|

                                                   
                                                 
|--------------------------15-13-11----------------|--------------------------12-11-12----------------|
|--11----------11----15-11----------15-13-11-------|--------------------12-------------12----12-------|
|-----12-11-12----12-------------------------14-12-|--13----------13-------13-------------13----13----|
|--------------------------------------------------|-----14-13-14----14----------------------------14-|
|--------------------------------------------------|--------------------------------------------------|
|--------------------------------------------------|--------------------------------------------------|
|
|--10----------10----15-10-18-17-15----------------|--------------------12----16-14-16-12----12-------|
|-----11-10-11----11----------------18-16-15-------|--12----------12-------12-------------12----12----|
|--------------------------------------------17-15-|-----13-11-13----13----------------------------13-|
|--------------------------------------------------|--------------------------------------------------|
|--------------------------------------------------|--------------------------------------------------|
|--------------------------------------------------|--------------------------------------------------|
                                                 
                                                                              
|--------------------------17-15-13----------------|--------------------------|
|--13----------13----17-13----------17-15-13-------|--------------------13~---|
|-----14-13-14----14-------------------------16-14-|--13----14----16----------|
|--------------------------------------------------|--------------------------|
|--------------------------------------------------|--------------------------|
|--------------------------------------------------|--------------------------|
|
|--12----------12----17-12-20-19-17----------------|--------------------------|
|-----13-12-13----13----------------20-18-17-------|--------------------17~---|
|--------------------------------------------19-17-|--16----17----19----------|
|--------------------------------------------------|--------------------------|
|--------------------------------------------------|--------------------------|
|--------------------------------------------------|--------------------------|


|------------19~-------|------------------------|--------------------17--19--|
|----------------------|------------------------|----------------18----------|
|----------------------|----------------14--16--|--17~-----------------------|
|--19\-----------------|------------15----------|----------------------------|
|----------------------|------------------------|----------------------------|
|----------------------|------------------------|----------------------------|

                                                                          
|--19h20p19p17----17--------------------|---------------------------------|
|--------------20-----18----------------|-----------6p5-----8-6h8-6p5-----|
|-------------------------17--16~-------|----7b---------7p5-----------7p5-|
|---------------------------------------|---------------------------------|
|---------------------------------------|---------------------------------|
|---------------------------------------|---------------------------------|

                                                                                       
|------5h7-8b-----8p7\5h7h8p7p5---|--5-----------------------------|------------------------------|
|--6h8--------------------------8-|----8p6p5-----------------------|------------------------------|
|---------------------------------|----------7p5-4h5h7-5p4---5-5~--|-5~--------------------7-9b---|
|---------------------------------|------------------------7-------|----------------7-9-10--------|
|---------------------------------|--------------------------------|---------7-8-10---------------|
|---------------------------------|--------------------------------|------10----------------------|
                                                                                                   
|--------17h20p17-----------------------17h22p17-------20----------|----------------------|
|--17h20----------20p17-----------17h20----------20p17-------------|----------------------|
|------------------------------17----------------------------------|----------------------|
|------------------------17h19----------------------------19p17----|----------------------|
|------------------------------------------------------------------|------------17\-------|
|---------------------------------------------------------------20\|--17~-----------------|

                                                                        
|-------------------------------------------|---------------------------|
|-------------------------------------------|-----------------------17--|
|------------------------------------9--10--|--9------9h10---9----------|
|-------------------------9--10--12---------|-----12--------------------|
|--------------7-8-10-12--------------------|---------------------------|
|--5--7h-8--10------------------------------|---------------------------|

                                                                                  
|--17h19p17----17-20-19p17----17-20b---20-19p17----|--17--------------------------|
|-----------20-------------20-------------------20-|-----20b--20--20--20~---20\---|
|--------------------------------------------------|------------------------------|
|--------------------------------------------------|------------------------------|
|--------------------------------------------------|------------------------------|
|--------------------------------------------------|------------------------------|

                                                                                  
|--12h13p12----12-15p13----17p15----19p17----17-20p19p17----17-|--19b---20b-------|
|-----------15----------16-------18-------20-------------19----|------------------|
|--------------------------------------------------------------|------------------|
|--------------------------------------------------------------|------------------|
|--------------------------------------------------------------|------------------|
|--------------------------------------------------------------|------------------|

                                                                       
|------------------------------------------13p12-------10-12-----------|
|---------------------------------10-12-13-------12-13--------------10-|
|-------------------------------------------------------------10-12----|
|--14-15-12-14-15-12-12-14-15-14---------------------------------------|
|----------------------------------------------------------------------|
|----------------------------------------------------------------------|
|
|-------------------------------------------17p15-------13-15--------8-|
|----------------------------------13-15-17-------15-17--------10-12---|
|----------------------------------------------------------------------|
|----------------------------------------------------------------------|
|----------------------------------------------------------------------|
|----------------------------------------------------------------------|

                                                                 
|----------------------------------------------------------------|
|--12p10--------10-12p10--12p10--------10-12p10--12p10--------10-|
|---------10-12------------------10-12------------------10-12----|
|----------------------------------------------------------------|
|----------------------------------------------------------------|
|----------------------------------------------------------------|
|
|--10p8---------8-10p8--10p8--------8-10p8--10p8--------8-|
|---------10-12---------------10-12---------------10-12---|
|---------------------------------------------------------|
|---------------------------------------------------------|
|---------------------------------------------------------|
|---------------------------------------------------------|

                                                                 
|----------------------------------------------------------------|
|--12p10--------10-12p10--12p10--------10-12p10--12p10--------10-|
|---------10-12------------------10-12------------------10-12----|
|----------------------------------------------------------------|
|----------------------------------------------------------------|
|----------------------------------------------------------------|
|
|--10p8--------8-10p8--10p8--------8-10p8--10p8--------8-|
|--------10-12---------------10-12---------------10-12---|
|--------------------------------------------------------|
|--------------------------------------------------------|
|--------------------------------------------------------|
|--------------------------------------------------------|

                                                      
|------------------------------------------------------|
|--12p10--------10-12p10--12p10--------10-12p10--12/---|
|---------10-12------------------10-12-----------------|
|------------------------------------------------------|
|------------------------------------------------------|
|------------------------------------------------------|
|
|--10p8--------8-10p8--10p8--------8-10p8--10/----17-|
|--------10-12---------------10-12-------------20----|
|----------------------------------------------------|
|----------------------------------------------------|
|----------------------------------------------------|
|----------------------------------------------------|

                                                                   
|--19p17----17h20-19--20p19p17----17----------------------17-------|
|--------20--------------------20-17-20p18p17----17h18h20----20-18h|
|---------------------------------------------19-------------------|
|------------------------------------------------------------------|
|------------------------------------------------------------------|
|------------------------------------------------------------------|
|
|--19p17----17h20-19--20p19p17----17----------------------17-------|
|--------20--------------------20-17-20p18p17----17h18h20----20-18h|
|---------------------------------------------19-------------------|
|------------------------------------------------------------------|
|------------------------------------------------------------------|
|------------------------------------------------------------------|

                                                                           
|---------------------------------------|----------------------------------|
|--20p18p17----17-20--20b-20b-20b-------|----------------------------------|
|-----------20--------------------------|----------------------------------|
|---------------------------------------|----------------------------------|
|---------------------------------------|--5-5-5-5-5-5-5-5---------3-5--5--|
|---------------------------------------|--3-3-3-3-3-3-3-3-3-3-5-6------3--|

                                                                                     
|------------------------------|----------------------------------|--------------------------|
|------------------------------|----------------------------------|--------------------------|
|-----------------------5-7~---|----------------------------------|--------------------------|
|-----------------5-7-8--------|----------------------------------|--------------------------|
|-----------5-6-8--------------|--5-5-5-5-5-5-5-5---------3-5--5--|-----6-5-3-----3-5-3-5----|
|----3--6-8--------------------|--3-3-3-3-3-3-3-3-3-3-5-6------3--|--3--------6-6------------|

                                                         
|--10--------------------10-13p10h13p10----13-15p13-15p13-10----|
|-----11--------------11----------------11-------------------11-|
|--------12p10--10h12-------------------------------------------|
|---------------------------------------------------------------|
|---------------------------------------------------------------|
|---------------------------------------------------------------|
|
|--13--------------------13-17-13-17-13----17-18p17h18p17p13----|
|-----15--------------15----------------15-------------------15-|
|--------15p14--14h15-------------------------------------------|
|---------------------------------------------------------------|
|---------------------------------------------------------------|
|---------------------------------------------------------------|
            
                                                  
|--10--------------------10-13p10h13p10----13-15p13-15p13-10----|
|-----11--------------11----------------11-------------------11-|
|--------12p10--10h12-------------------------------------------|
|---------------------------------------------------------------|
|---------------------------------------------------------------|
|---------------------------------------------------------------|
|
|--13--------------------13-17-13-17-13----17-18p17h18p17p13----|
|-----15--------------15----------------15-------------------15-|
|--------15p14--14h15-------------------------------------------|
|---------------------------------------------------------------|
|---------------------------------------------------------------|
|---------------------------------------------------------------|
              

                                                
|--13p10-------------10-13-16p13h16p13----12-19p16h19p16-------|
|--------12-------12-------------------15----------------18-17-|
|-----------13-10----------------------------------------------|
|--------------------------------------------------------------|
|--------------------------------------------------------------|
|--------------------------------------------------------------|
|
|--13p10----------------10-13p10-13p10----10-16p13h16p13-------|
|--------12----------12----------------12----------------15-14-|
|-----------13----13-------------------------------------------|
|--------------12----------------------------------------------|
|--------------------------------------------------------------|
|--------------------------------------------------------------|

                                                                
|--16p13-----------------16-19p16-19p16----16-22p19-22p19-------|
|--------15-----------18----------------18----------------21----|
|-----------16--16h19----------------------------------------20-|
|---------------------------------------------------------------|
|---------------------------------------------------------------|
|---------------------------------------------------------------|
|
|--13p10-------------10-13-16p13-16p13----13-19p16-19p16-------|
|--------12-------12-------------------15----------------18-16-|
|-----------13p12----------------------------------------------|
|--------------------------------------------------------------|
|--------------------------------------------------------------|
|--------------------------------------------------------------|

                                                                
|--12--------------------12-15p12-15p12----12-19p15h19p15-12----|
|-----13--------------13----------------13-------------------13-|
|--------14p12--12h14-------------------------------------------|
|---------------------------------------------------------------|
|---------------------------------------------------------------|
|---------------------------------------------------------------|
|
|--15--------------------15-19p15-19p15----15-20p19-20p19p15----|
|-----17--------------17----------------17-------------------17-|
|--------17p16--16h17-------------------------------------------|
|---------------------------------------------------------------|
|---------------------------------------------------------------|
|---------------------------------------------------------------|

                                                                
|--12--------------------12-15p12-15p12----12-19p15h19p15-12----|
|-----13--------------13----------------13-------------------13-|
|--------14p12--12h14-------------------------------------------|
|---------------------------------------------------------------|
|---------------------------------------------------------------|
|---------------------------------------------------------------|
|
|--15--------------------15-19p15-19p15----15-20p19-20p19p15----|
|-----17--------------17----------------17-------------------17-|
|--------17p16--16h17-------------------------------------------|
|---------------------------------------------------------------|
|---------------------------------------------------------------|
|---------------------------------------------------------------|
  
                                                          
|--11p8----------------8-14p11h14p11----11-17p14h17p14-------|
|-------10----------10---------------13----------------16-15-|
|----------11----11------------------------------------------|
|-------------10---------------------------------------------|
|------------------------------------------------------------|
|------------------------------------------------------------|
|
|--14p11----------------11-17p14h17p14----14-20p17-20p17-------|
|--------13----------13----------------16----------------19-18-|
|-----------14----14-------------------------------------------|
|--------------13----------------------------------------------|
|--------------------------------------------------------------|
|--------------------------------------------------------------|
                 
|--17p14----------------14-20p17h20p17----17-23\----------|
|--------16----------16----------------19--------------12-|
|-----------17----17-----------------------------10-12----|
|--------------16-----------------------------------------|
|---------------------------------------------------------|
|---------------------------------------------------------|
|
|--14p11----------------11-17p14h17p14----14-20\----------|
|--------13----------13----------------16-----------------|
|-----------14----14--------------------------------------|
|--------------13--------------------------------12-13-15-|
|---------------------------------------------------------|
|---------------------------------------------------------|

                                                                                 
|-----------------------------------------12--------12-|--13~---13\---13--------||
|--13-----10-11-13-----12-13-15--12-13-15-----13-15----|------------------------||
|------12-----------14---------------------------------|------------------------||
|------------------------------------------------------|------------------------||
|------------------------------------------------------|------------------------||
|------------------------------------------------------|------------------------||
|                                                                                 
|------------------------------------------------------|------------------------||
|-----------------------------------------13--------13-|--15~---15\---15--------||
|--12--------12-14-----12-14-15--12-14-15-----14-15----|------------------------||
|------13-15--------15---------------------------------|------------------------||
|------------------------------------------------------|------------------------||
|------------------------------------------------------|------------------------||
comments
print report bad tab
7 comments total. Showing first comments.
0 reply
nirvana4lf wrote on May 27 2006, 09:59 pm

dude this song is in 1/2 step

0 reply
lynyrdskynyrd12 wrote on July 7 2006, 10:05 pm

the intro is P.H.
|---------------------------------|----------------------------|
|---------------------------------|----------------------------|
|---------------------------------|-----------------------6*---|
|---------------------------------|-----------------6-7-9------|
|----------------------------2-4--|-----------5-7-9------------|
|--2-2-2-2-2-2-2-2-2-2-5-7-9---2--|--2--5-7-9------------------|

0 reply
Kaervek wrote on November 7 2006, 06:37 pm

It's not accurate at all.

I want to post or [tab]
guest
You may want to rate the tab now too:
select rating
Please do not post tabs as comments. Select "correction" instead!