Oops, an error
Loading. Please wait.

Scarified Tab

ver3
ver3

Whole song

More versions @911Tabs.com
56,270 views 117 this week
9 commentsread comments
1 2 3 4 5
excellent!
x 10
add to favorites launch autoscroll
font size
0
reset
Autoscroll
+/-
esc
set tempo
stop
Contributor
Tuning
D# G# C# F# A# D#
WARNING: You are trying to view
                                    content from Ultimate-Guitar.com
                                    in an unauthorized application,
                                    which is prohibited.

                                    Please use an official Ultimate
                                    Guitar Tabs application for iPhone,
                                    iPad or Android to access legitimate
                                    chords, guitar, bass, and drum tabs
                                    from Ultimate-Guitar.com database.

                                    Type "ultimate guitar tabs" in Apple
                                    App Store's or Android Market's
                                    search to find the application.
#----------------------------------PLEASE NOTE---------------------------------#
#This file is the author's own work and represents their interpretation of the #
#song. You may only use this file for private study, scholarship, or research. #
#------------------------------------------------------------------------------#

SCARIFIED
As recorded by Racer X
(From the 1989 Album SECOND HEAT)

Transcribed by (Cant read japanese names)
        

Words by N/a Music by Paul Gilbert
Arranged by Paul Gilbert

Gtr I (Eb Ab Db Gb Bb Eb) - 'Untitled'
Gtr II (Eb Ab Db Gb Bb Eb) - 'Untitled'

 Drum intro     Guitars in
  Q=150
             $
                 F#m                                 A
 4/4
             Gtrs I, II
                                     |-3-|                       |-3-|
  Wx4            S S S S S S S S S S S S S E E   E E S S S S S S S S S Q
|------------||--------------------------------|---------------------------|
|------------||o-------------------------------|---------------------------|
|------------||--------------------------------|-----------------------6---|
|------------||--------------------------------|-----------------6-7-9-----|
|------------||o-------------------------2-4---|-----------5-7-9-----------|
|------------||--2-2-2-2-2-2-2-2-2-2-4-5-----2-|---2-5-7-9-----------------|


  F#m                                 G#°
                      |-3-|
  S S S S S S S S S S S S S E E   E E S S S S S S S S S S S S   4x
|-------------------------------|-------------------------------||
|-------------------------------|------------------------------o||
|-------------------------------|-----7-6-4---------------------||
|-------------------------------|-----------7-6-4---------------||
|-------------------------2-4---|-----------------7-5-4--------o||
|-2-2-2-2-2-2-2-2-2-2-4-5-----2-|---2-------------------7-5-4---||


 Arpeggio section
  D                       B/D#
  Gtr I
   S  S  S  S  S  S  S  S  S  S  S  S  S  S  S  S
|-21-17----------------17-21-17-------------------|
|-------19----------19----------19----------------|
|----------19----19----------------20-------------|
|-------------19----------------------21-19-16----|
|----------------------------------------------18-|
|-------------------------------------------------|
|
| Gtr II
|  S  S  S  S  S  S  S  S  S  S  S  S  S  S  S  S
|-17-14----------------14-17-14-------------------|
|-------15----------15----------16----------------|
|----------14----14----------------16-14----------|
|-------------16-------------------------16-13----|
|----------------------------------------------14-|
|-------------------------------------------------|


  E                       F°
                           |-----5-----|  |------6-------|
   S  S  S  S  S  S  S  S  S  S  S  S  S  S  S  S  S  S  S
|-------------16-19-16----19-16----------------------16-19-|
|----------17----------17-------18----------------18-------|
|-------16-------------------------19-16----16-19----------|
|----18----------------------------------18----------------|
|-19-------------------------------------------------------|
|----------------------------------------------------------|
|
|                          |-----5-----|  |------6-------|
|  S  S  S  S  S  S  S  S  S  S  S  S  S  S  S  S  S  S  S
|-------------12-16-12----16-13----------------------13-16-|
|----------14----------14-------15----------------15-------|
|-------13-------------------------16-13----13-16----------|
|----14----------------------------------15----------------|
|-16-------------------------------------------------------|
|----------------------------------------------------------|


  F#m
   ~~~~~~~~~~~~~~~~
   W           +W
|-17--------|-(17)----||
|-----------|---------||
|-----------|---------||
|-----------|---------||
|-----------|---------||
|-----------|---------||
|
|  ~~~~~~~~~~~~~~~~
|  W           +W
|-14--------|-(14)----||
|-----------|---------||
|-----------|---------||
|-----------|---------||
|-----------|---------||
|-----------|---------||


 Verse
  F#m
   S  S  S  S  S  S  S  S  S  S  S  S  S  S  S  S
|-------------------14-------------10----14-------|
|-14-10----10-14-10----14-10-12-14----14----14-10-|
|-------11----------------------------------------|
|-------------------------------------------------|
|-------------------------------------------------|
|-------------------------------------------------|
|
|  S  S  S  S  S  S  S  S  S  S  S  S  S  S  S  S
|-------------------------------------------------|
|-10----------10----14-10-------10-12-10-14-10----|
|----11----11----11-------11-13----------------11-|
|-------11----------------------------------------|
|-------------------------------------------------|
|-------------------------------------------------|


  Bm
   S  S  S  S  S  S  S  S  S  S  S  S  S  S  S  S
|-------------------19-------------15----19--------|
|-19-15----15-19-15----19-15-17-19----19----19-15--|
|-------16-----------------------------------------|
|--------------------------------------------------|
|--------------------------------------------------|
|--------------------------------------------------|
|
|  S  S  S  S  S  S  S  S  S  S  S  S  S  S  S  S
|--------------------------------------------------|
|-15----------15----19-15-------15-17-15-19-15-----|
|----16----16----16-------16-18----------------16--|
|-------16-----------------------------------------|
|--------------------------------------------------|
|--------------------------------------------------|


  E
   S  S  S  S  S  S  S  S  S  S  S  S  S  S  S  S
|-------------------12----16-14-16-12----12-------|
|-12----------12-------12-------------12----12----|
|----13----13----13----------------------------13-|
|-------14----------------------------------------|
|-------------------------------------------------|
|-------------------------------------------------|
|
|  S  S  S  S  S  S  S  S  S  S  S  S  S  S  S  S
|-------------------------------------------------|
|-------------------------17-15-17-12----12-------|
|-13----------13----16-13-------------13----13----|
|----14----14----14----------------------------12-|
|-------14----------------------------------------|
|-------------------------------------------------|


  A
   S  S  S  S  S  S  S  S  S  S  S  S  S  S  S  S
|-------------------17----21-19-21-17----17--------|
|-17----------17-------17-------------17----17-14--|
|----18-16-18----18--------------------------------|
|--------------------------------------------------|
|--------------------------------------------------|
|--------------------------------------------------|
|
|  S  S  S  S  S  S  S  S  S  S  S  S  S  S  S  S
|-------------------------17-16-17-12----12--------|
|-14----------14----17-14-------------14----14-----|
|----14----14----14----------------------------14--|
|-------14-----------------------------------------|
|--------------------------------------------------|
|--------------------------------------------------|


  D
   S  S  S  S  S  S  S  S  S  S  S  S  S  S  S  S
|-------------------------------------------------|
|-------------------15----19-17-19-15----15-------|
|-14----------14-------14-------------14----14----|
|----16----16----16----------------------------16-|
|-------17----------------------------------------|
|-------------------------------------------------|
|
|  S  S  S  S  S  S  S  S  S  S  S  S  S  S  S  S
|-------------------------------------------------|
|-------------------------15-14-15-10----10-------|
|-11----------11----14-11-------------11----11----|
|----12----12----12----------------------------12-|
|-------12----------------------------------------|
|-------------------------------------------------|


  Bm
   S  S  S  S  S  S  S  S  S  S  S  S  S  S  S  S
|-------------------14----19-17-19-14----14--------|
|-15----------15-------15-------------15----15-----|
|----16-14-16----16----------------------------16--|
|--------------------------------------------------|
|--------------------------------------------------|
|--------------------------------------------------|
|
|  S  S  S  S  S  S  S  S  S  S  S  S  S  S  S  S
|-------------------10----14-12-14-10----10--------|
|-12----------12-------12-------------12----12-----|
|----13-11-13----13----------------------------11--|
|--------------------------------------------------|
|--------------------------------------------------|
|--------------------------------------------------|


  C#7
   S  S  S  S  S  S  S  S  S  S  S S  S S  S  S
|-------------------------13-11-13-9----9-------|
|-------------------14--9-------------9----9----|
|-13-10----10-13-10--------------------------11-|
|-------11--------------------------------------|
|-----------------------------------------------|
|-----------------------------------------------|
|
|  S  S  S  S  S  S  S  S  S  S  S S  S S  S  S
|-----------------------------------------------|
|-------------------------14-12-14-9----9-------|
|-10----------10----13-10------------10---10----|
|----11----11----11--------------------------11-|
|-------11--------------------------------------|
|-----------------------------------------------|


  F#m/C#
   S  S  S  S  S  S  S  S  S  S  S  S  S  S  S  S
|-------------------14----17-16-14-----------------|
|-14-10----10-14-10----14----------17-15-14--------|
|-------11----------------------------------16-14--|
|--------------------------------------------------|
|--------------------------------------------------|
|--------------------------------------------------|
|
|  S  S  S  S  S  S  S  S  S  S  S  S  S  S  S  S
|-------------------------14-12-10-----------------|
|-10----------10----14-10----------14-12-10--------|
|----11----11----11-------------------------13-11--|
|-------11-----------------------------------------|
|--------------------------------------------------|
|--------------------------------------------------|


To Coda
  C#7
   S  S  S  S  S  S  S  S  S  S  S S  S S  S  S
|-------------------------13-11-13-9----9-------|
|-------------------14--9-------------9----9----|
|-13-10----10-13-10--------------------------11-|
|-------11--------------------------------------|
|-----------------------------------------------|
|-----------------------------------------------|
|
|  S  S  S  S  S  S  S  S  S  S  S S  S S  S  S
|-----------------------------------------------|
|-------------------------14-12-14-9----9-------|
|-10----------10----13-10------------10---10----|
|----11----11----11--------------------------11-|
|-------11--------------------------------------|
|-----------------------------------------------|


  F#m/C#
                           |------6-------|
   S  S  S  S  S  S  S  S  S  S  S  S  S  S  Q
|-------------------14----17-16-14----------17\---|
|-14-10----10-14-10----14----------17-15-14-------|
|-------11----------------------------------------|
|-------------------------------------------------|
|-------------------------------------------------|
|-------------------------------------------------|
|
|                          |------6-------|
|  S  S  S  S  S  S  S  S  S  S  S  S  S  S  Q
|-------------------------14-12-10----------14\---|
|-10----------10----14-10----------14-12-10-------|
|----11----11----11-------------------------------|
|-------11----------------------------------------|
|-------------------------------------------------|
|-------------------------------------------------|


  N.C.
  |----6-----| |----6-----| |----6----| |----6----|
  S S S  S S S S S S  S S S S S S S S S S S S S S S
|--------------9-7-9-10-9-7-------------7-5-7-9-7-5-|
|-9-7-9-10-9-7--------------7-5-7-9-7-5-------------|
|---------------------------------------------------|
|---------------------------------------------------|
|---------------------------------------------------|
|---------------------------------------------------|
|
| W
|---------------------------------------------------|
|---------------------------------------------------|
|---------------------------------------------------|
|---------------------------------------------------|
|---------------------------------------------------|
|---------------------------------------------------|


                                 D.S. al Coda
                                      \0.25/
                                      ~~~~~~
  |----6----| |----6----| |----6----|
  S S S S S S S S S S S S S S S S S S Q
|-------------5-4-5-7-5-4-7-5-7-9-7-5-9--------|
|-5-3-5-7-5-3----------------------------------|
|----------------------------------------------|
|----------------------------------------------|
|----------------------------------------------|
|----------------------------------------------|
|
| W
|----------------------------------------------|
|----------------------------------------------|
|----------------------------------------------|
|----------------------------------------------|
|----------------------------------------------|
|----------------------------------------------|


  &
  D#
   S  S  S  S  S  S  S  S  S  S  S  S  S  S  S  S
|-------------------------15-13-15-11----11-------|
|-------------------16-11-------------11----11----|
|-15-12----12-15-12----------------------------12-|
|-------13----------------------------------------|
|-------------------------------------------------|
|-------------------------------------------------|
|
|  S  S  S  S  S  S  S  S  S  S  S  S  S  S  S  S
|-------------------------------------------------|
|-------------------11----16-15-16-11----11-------|
|-12----------12-------12-------------12----12----|
|----13----13----13----------------------------13-|
|-------13----------------------------------------|
|-------------------------------------------------|


  G#/D#
   S  S  S  S  S  S  S  S  S  S  S  S  S  S  S  S
|-------------------16----19-18-16-----------------||
|-16-12----12-16-12----16----------19-17-16--------||
|-------13----------------------------------18-16--||
|--------------------------------------------------||
|--------------------------------------------------||
|--------------------------------------------------||
|
|  S  S  S  S  S  S  S  S  S  S  S  S  S  S  S  S
|-------------------------16-14-12-----------------||
|-12----------12----16-12----------16-14-12--------||
|----13----13----13-------------------------15-13--||
|-------13-----------------------------------------||
|--------------------------------------------------||
|--------------------------------------------------||


 Guitar Solo
  N.C.           E
 3/4            4/4
   |--3--|
   Q  Q  Q  Q    H        H       +H      +E   E  E  E
|--------------|---------18----|-(18)----(18)----------|
|--------------|---------------|-----------------------|
|-15-16-18-20--|---------------|--------------------15-|
|--------------|---------------|-----------------18----|
|--------------|---------------|--------------19-------|
|--------------|---------------|-----------------------|
|
|  |--3--|
|  Q  Q  Q  Q    E E E E  H       +W
|--------------|---------------|-----------------------|
|--------------|---------------|-----------------------|
|-12-13-15-16--|---------------|-----------------------|
|--------------|---------------|-----------------------|
|--------------|----------2----|--(2)------------------|
|--------------|-0-0-0-0--0----|--(0)------------------|


                                 |--3--|
   H.          S  S  S  S    S   S  S  S  S  S  S  S  S  +H
|-------------------16-18-|-18--19-18-16----16--------------------|
|--------------x-17-------|--------------19----16-----------------|
|-16----------------------|-----------------------16-15-(15)------|
|-------------------------|---------------------------------------|
|-------------------------|---------------------------------------|
|-------------------------|---------------------------------------|
|
|  E  E E E Q  Q            +H                            E  Q.
|-------------------------|---------------------------------------|
|-------------------------|---------------------------------------|
|-------------------------|---------------------------------------|
|-------------------------|---------------------------------------|
|-----------2--2----------|-(2)---------------------------2--4----|
|--0--0-0-0-0--0----------|-(0)---------------------------0--2----|


    G#m
                       |----6----|   |----6----|            |----5----|
  E a   Q.     S S S S S S S S S S   S S S S S S Q   E.   S S S S   S S
|----------------------------------|-------4h6h7S9---9----7---6h7p==6----|
|--------------5p4-----7p5h7p5p4---|-4h5h7------------------9---------9--|
|------------------6p4-----------6-|-------------------------------------|
|---6\-/6--------------------------|-------------------------------------|
|----------------------------------|-------------------------------------|
|----------------------------------|-------------------------------------|
|
| E     E  E E E   E   E     E       E     E     E E E  E   E     E
|----------------------------------|-------------------------------------|
|----------------------------------|-------------------------------------|
|----------------------------------|-------------------------------------|
|----------------------------------|-------------------------------------|
|-6------------6-------------------|-6---------------6-------------------|
|-4-----4--4-4-4---4---4-----4-----|-4-----4-----4-4-4--4---4-----4------|


  |----6----| |----5----| |-3-|                                    |--3--|
  S S S S S S S S S   S S S S S E +Q      +Q    S S S S S S S S E  S  S  S
|---------------------------------------|-----------------------------------|
|-7h9p7p5-------------------------------|-----------------------------------|
|---------8p6h8p6p4---6h8p6p4p3h4-(4)---|-(4)-----------------6-8-11-13-16--|
|---------------------------------------|---------------6-8-9---------------|
|---------------------------------------|---------6-7-9---------------------|
|---------------------------------------|-------9---------------------------|
|
| E     E     E     E     E     E  E  E    E  E E   E   Q       Q
|---------------------------------------|-----------------------------------|
|---------------------------------------|-----------------------------------|
|---------------------------------------|-----------------------------------|
|---------------------------------------|-----------------------------------|
|-6-----------------------6-------------|--6------------6-------6-----------|
|-4-----4-----4-----4-----4-----4--4--4-|--4--4-4---4---4-------4-----------|


  E
              T                                       T
   |-----------7-----------|                          |--------7--------|
   S  S    S  S    S  S    S  T  T  T  T  T  T  T  T  S  S  S  S  S  S  S  S  E.
|-11-14---16-19---16-14---11----------------11-14-16-21-16-14-11-----------------|
|--------------------------------------------------------------------------------|
|----------------------------16-13-11-13-16----------------------16-13-11--------|
|--------------------------------------------------------------------------------|
|-------------------------------------------------------------------------14-11--|
|--------------------------------------------------------------------------------|
|
|  S    S       S       S     S     S     S     S     Q                    Q
|--------------------------------------------------------------------------------|
|--------------------------------------------------------------------------------|
|--------------------------------------------------------------------------------|
|-----------------------------------------------------9--------------------9-----|
|-----------------------------------------------------7--------------------7-----|
|--0----0-------0-------0-----0-----0-----0-----0--------------------------------|


   ~~~
   H     H
|--------------|
|--------------|
|--------------|
|--------------|
|--------------|
|-16-----x\----|
|
| +W
|--------------|
|--------------|
|--------------|
|-(9)----------|
|-(7)----------|
|--------------|


  |-3-|             |-3-| |-3-|    |--3---|
  E E E S S   S   S E E E E E E    E  E a E    +E   E  H
|-------------------------------|------------------------------|
|-------------------------------|------------------------------|
|-------------------------6-8-9-|--8--6-8-8b9==(8)r-8--8-------|
|-------------------6-8-9-------|------------------------------|
|---------6---7---9-------------|------------------------------|
|-4-6-7-9-----------------------|------------------------------|
|
| |-3-| |---3---|
| E E E E   E   E   Q     Q       +H                  +E  Q.
|-------------------------------|------------------------------|
|-------------------------------|------------------------------|
|-------------------------------|------------------------------|
|-------------------9-----9-----|-(9)-----------------(9)-4----|
|-------------------7-----7-----|-(7)-----------------(7)-4----|
|-0-0-0-0---0---0---------------|-------------------------2----|


  G#m
   |------5------|  |------6-------|
   S  S  S    S  S  S  S  S  S  S  S  a  Q    S  S  S  S
|-16-18-16------16-19-18-16-16----19-19-19---19-18-16----|
|------------19----------------19---------------------19-|
|--------------------------------------------------------|
|--------------------------------------------------------|
|--------------------------------------------------------|
|--------------------------------------------------------|
|
|  E       E        E        E           E E  E     E
|--------------------------------------------------------|
|--------------------------------------------------------|
|--------------------------------------------------------|
|----------------------------------------1-1--------1----|
|-------------------2--------4----------------4----------|
|--4-------4---------------------------------------------|


   S  a  E.    E  E  H
|-16-------------------------|
|----19-19----19-19-19-------|
|----------------------------|
|----------------------------|
|----------------------------|
|----------------------------|
|
|  E        E  E  E  Q  Q
|----------------------------|
|----------------------------|
|--4S=======6--6--6--6--x\---|
|--4S=======6--6--6--6--x\---|
|----------------------------|
|----------------------------|


   |------5------|  |----------7----------|  |-------6--------|  |---------7---------|
   S  S  S    S  S  S  S  S  S    +S   S  S  S  S  +S   S  S  S  S  S  S  S    S  S  S
|---------------------------16---(16)----------18-(18)-16----16-19-18-16------------16-|
|-16h17p16------16-19-17-16-----------19-17-16------------19-------------19---17-19----|
|------------18------------------------------------------------------------------------|
|--------------------------------------------------------------------------------------|
|--------------------------------------------------------------------------------------|
|--------------------------------------------------------------------------------------|
|
|  E       E        E          E             E          E        E          E
|--------------------------------------------------------------------------------------|
|--------------------------------------------------------------------------------------|
|--------------------------------------------------------------------------------------|
|--6-------6---------------------------------------------------------------------------|
|--6-------6---------------------------------6-----------------------------------------|
|--4-------4--------4----------4-------------4----------4--------4----------4----------|


                   N.C.
      ~~~
                   |----6----|
   a  H.           S S S S S S
|-18-18-------------------------|
|-------------------------------|
|------------------8-6-4-4-6-8--|
|-------------------------------|
|-------------------------------|
|-------------------------------|
|
|                  |----6----|
|     E  E E E E E S S S S S S
|-------------------------------|
|-------------------------------|
|-------------------------------|
|------------------9-8-6-6-8-9--|
|-----6--6-6-6-6-6--------------|
|-----4--4-4-4-4-4--------------|


 interlude
   |----6-----|  |------6-------|  |------6-------|       |--3--|
   S S S S S  S  S  S  S  S  S  S  S  S  S  S  S  S  +E   S  S  S
|---------------------------------14-16-19------------------------|
|------------------------14-16-17----------16-17-19-(19)----10-12-|
|--9-8-6-6-8--9-11-13-16---------------------------------13-------|
|-----------------------------------------------------------------|
|-----------------------------------------------------------------|
|-----------------------------------------------------------------|
|
|  |----6-----|  |------6-------|  |------6-------|       |--3--|
|  S S S S S  S  S  S  S  S  S  S  S  S  S  S  S  S   E   S  S  S
|-------------------------------------------------9--11-----------|
|-------------------9-11-12-11-12-12-----9-11-12-------------7--9-|
|---------------11-------------------11-------------------9-------|
|-11-9-8-8-9-11---------------------------------------------------|
|-----------------------------------------------------------------|
|-----------------------------------------------------------------|


   |------6-------|  |------6-------|  |------6-------|  |------6-------|
   S  S  S  S  S  S  S  S  S  S  S  S  S  S  S  S  S  S  S  S  S  S  S  S
|-------------------------------------------------------------------------|
|-14-12-11----11-12-14-12-11-14-12-11----11-12-14-12-11-14-12-11----11-12-|
|----------13-------------------------13-------------------------13-------|
|-------------------------------------------------------------------------|
|-------------------------------------------------------------------------|
|-------------------------------------------------------------------------|
|
|  |------6-------|  |------6-------|  |------6-------|  |------6-------|
|  S  S  S  S  S  S  S  S  S  S  S  S  S  S  S  S  S  S  S  S  S  S  S  S
|-------------------------------------------------------------------------|
|-11--9--7-----7--9-11--9--7-11--9--7-----7--9-11--9--7-11--9--7-----7--9-|
|-----------9--------------------------9--------------------------9-------|
|-------------------------------------------------------------------------|
|-------------------------------------------------------------------------|
|-------------------------------------------------------------------------|


   |------6-------|  |------6-------|  |------6-------|  |------6-------|
   S  S  S  S  S  S  S  S  S  S  S  S  S  S  S  S  S  S  S  S  S  S  S  S
|-------------------------------------------------------------------------|
|-14-12-11----11-12-14-12-11-14-12-11----11-12-14-12-11-14-12-11----11-12-|
|----------13-------------------------13-------------------------13-------|
|-------------------------------------------------------------------------|
|-------------------------------------------------------------------------|
|-------------------------------------------------------------------------|
|
|  |------6-------|  |------6-------|  |------6-------|  |------6-------|
|  S  S  S  S  S  S  S  S  S  S  S  S  S  S  S  S  S  S  S  S  S  S  S  S
|-------------------------------------------------------------------------|
|-11--9--7-----7--9-11--9--7-11--9--7-----7--9-11--9--7-11--9--7-----7--9-|
|-----------9--------------------------9--------------------------9-------|
|-------------------------------------------------------------------------|
|-------------------------------------------------------------------------|
|-------------------------------------------------------------------------|


   |------6-------|  |------6-------|  |------6-------|    |--3--|
   S  S  S  S  S  S  S  S  S  S  S  S  S  S  S  S  S  S  E S  S  S
|------------------------------------------------------------14-16-|
|-14-12-11----11-12-14-12-11-14-12-11----11-12-14-12-11-14---------|
|----------13-------------------------13---------------------------|
|------------------------------------------------------------------|
|------------------------------------------------------------------|
|------------------------------------------------------------------|
|
|  |------6-------|  |------6-------|  |------6-------|
|  S  S  S  S  S  S  S  S  S  S  S  S  S  S  S  S  S  S  Q
|------------------------------------------------------------------|
|-11--9--7-----7--9-11--9--7-11--9--7-----7--9-11--9--7-11---------|
|-----------9--------------------------9---------------------------|
|------------------------------------------------------------------|
|------------------------------------------------------------------|
|------------------------------------------------------------------|


   |------6-------|  |------6-------|  |------6-------|  |------6-------|
   S  S  S  S  S  S  S  S  S  S  S  S  S  S  S  S  S  S  S  S  S  S  S  S
|-18-16-14-16-18-19-18-19-18-16-14-16-14-12-14-12-11----11-12-14-16-14-12-|
|----------------------------------------------------14-------------------|
|-------------------------------------------------------------------------|
|-------------------------------------------------------------------------|
|-------------------------------------------------------------------------|
|-------------------------------------------------------------------------|


   |-----5-----|  |--3--|
   S  S  S  S  S  E  E  E  a  H
|-14-12-11----11-14-14-14-14-14----||
|----------14----------------------||
|----------------------------------||
|----------------------------------||
|----------------------------------||
|----------------------------------||


 Intro Riff revisted
                      |-3-|                       |-3-|
  S S S S S S S S S S S S S E E   E E S S S S S S S S S Q
|-------------------------------|--------------------------|
|-------------------------------|--------------------------|
|-------------------------------|-----------------------6--|
|-------------------------------|-----------------6-7-9----|
|-------------------------2-4---|-----------5-7-9----------|
|-2-2-2-2-2-2-2-2-2-2-4-5-----2-|---2-5-7-9----------------|


                      |-3-|
  S S S S S S S S S S S S S E E   E E S S S S S S S S S S S S
|-------------------------------|------------------------------||
|-------------------------------|------------------------------||
|-------------------------------|-----7-6-4--------------------||
|-------------------------------|-----------7-6-4--------------||
|-------------------------2-4---|-----------------7-5-4--------||
|-2-2-2-2-2-2-2-2-2-2-4-5-----2-|---2-------------------7-5-4--||


 Outro
  A
  Gtr I
                                             T     T
   |--3--|                    |--3--|        |-------6-------|
   S  S  S  S  S  S  S  S  S  S  S  S  S  S  S  S  S  S  S  +S
|-12-------------------12-16-12-16-12----12-17-16-17-16-12-(12)-|
|----14-------------14----------------14------------------------|
|-------14----14-14---------------------------------------------|
|----------14---------------------------------------------------|
|---------------------------------------------------------------|
|---------------------------------------------------------------|
|
| Gtr II
|                                            T     T
|  |--3--|                    |--3--|        |-------6-------|
|  S  S  S  S  S  S  S  S  S  S  S  S  S  S  S  S  S  S  S  +S
|---------------------------------------------------------------|
|-14-------------------14-17-14-17-14----14-19-17-19-17-14-(14)-|
|----14-------------14----------------14------------------------|
|-------14----14-14---------------------------------------------|
|----------16---------------------------------------------------|
|---------------------------------------------------------------|


                                             T     T
   |--3--|                    |--3--|        |-------6-------|
   S  S  S  S  S  S  S  S  S  S  S  S  S  S  S  S  S  S  S  +S
|-12-------------------12-16-12-16-12----12-17-16-17-16-12-(12)---|
|----14-------------14----------------14--------------------------|
|-------14----14-14-----------------------------------------------|
|----------14-----------------------------------------------------|
|-----------------------------------------------------------------|
|-----------------------------------------------------------------|
|
|                                            T     T
|  |--3--|                    |--3--|        |-------6-------|
|  S  S  S  S  S  S  S  S  S  S  S  S  S  S  S  S  S  S  S  +S
|-----------------------------------------------------------------|
|-14-------------------14-17-14-17-14----14-19-17-19-17-14-(14)---|
|----14-------------14----------------14--------------------------|
|-------14----14-14-----------------------------------------------|
|----------16-----------------------------------------------------|
|-----------------------------------------------------------------|


  G°
                                             T     T
   |--3--|                    |--3--|        |--3--|
   S  S  S  S  S  S  S  S  S  S  S  S  S  S  S  S  S  S  S
|-12-------------------------12-15-12----12-18-15-18-15-12-|
|----14----------------14-12----------14-------------------|
|-------15-12-15-12-15-------------------------------------|
|----------------------------------------------------------|
|----------------------------------------------------------|
|----------------------------------------------------------|
|
|  |--3--|                    |--3--|        |--3--|
|  S  S  S  S  S  S  S  S  S  S  S  S  S  S  S  S  S  S  S
|--9-----------------------9--9--5--9-----9-15-12-15-12--9-|
|----11----------------11-------------11-------------------|
|-------12--9-12--9-12-------------------------------------|
|----------------------------------------------------------|
|----------------------------------------------------------|
|----------------------------------------------------------|


                                          T        T
   |--3--|                    |--3--|
   S  S  S  S  S  S  S  S  S  S  S  S  S  S  S     S     S  S
|-12-------------------15-18-15-18-15----21-18----21----18-15-|
|----14-------------17----------------17----------------------|
|-------15-12-15-18-------------------------------------------|
|-------------------------------------------------------------|
|-------------------------------------------------------------|
|-------------------------------------------------------------|
|
|                                            T        T
|  |--3--|                    |--3--|        |---3----|
|  S  S  S  S  S  S  S  S  S  S  S  S  S  S  S  S     S  S  S
|--9-------------------12-15-12-15-12----12-18-15----18-15-12-|
|----11-------------14----------------14----------------------|
|-------12--9-12-15-------------------------------------------|
|-------------------------------------------------------------|
|-------------------------------------------------------------|
|-------------------------------------------------------------|


  Gm7
                                             T     T
   |--3--|                    |--3--|        |-------6-------|
   S  S  S  S  S  S  S  S  S  S  S  S  S  S  S  S  S  S  S  +S
|-14-------------------14-18-14-18-14----14-19-18-19-18-14-(14)-|
|----16-------------16----------------16------------------------|
|-------16----16-16---------------------------------------------|
|----------18---------------------------------------------------|
|---------------------------------------------------------------|
|---------------------------------------------------------------|
|
|                                            T     T
|  |--3--|                    |--3--|        |-------6-------|
|  S  S  S  S  S  S  S  S  S  S  S  S  S  S  S  S  S  S  S  +S
|-11-------------------11-14-11-14-11----11-16-14-16-14-11-(11)-|
|----12-------------12----------------12------------------------|
|-------13----13-13---------------------------------------------|
|----------14---------------------------------------------------|
|---------------------------------------------------------------|
|---------------------------------------------------------------|


                                             T        T
   |--3--|                    |--3--|        |-------6-------|
   S  S  S  S  S  S  S  S  S  S  S  S  S  S  S  S  S  S  S  +S
|-14-------------------14-18-14-18-14----14-19-18-19-18-14-(14)---|
|----16-------------16----------------16--------------------------|
|-------16----16-16-----------------------------------------------|
|----------18-----------------------------------------------------|
|-----------------------------------------------------------------|
|-----------------------------------------------------------------|
|
|                                            T     T
|  |--3--|                    |--3--|        |-------6-------|
|  S  S  S  S  S  S  S  S  S  S  S  S  S  S  S  S  S  S  S  +S
|-11-------------------11-14-11-14-11----11-16-14-16-14-11-(11)---|
|----12-------------12----------------12--------------------------|
|-------13----13-13-----------------------------------------------|
|----------14-----------------------------------------------------|
|-----------------------------------------------------------------|
|-----------------------------------------------------------------|


  F°
   |--3--|                    |--3--|        |-------6-------|
   S  S  S  S  S  S  S  S  S  S  S  S  S  S  S  S  S  S  S  +S
|-13-------------------13-16-13-16-13----13-19-16-19-16-13-(13)-|
|----15-------------15----------------15------------------------|
|-------16-13-16-16---------------------------------------------|
|---------------------------------------------------------------|
|---------------------------------------------------------------|
|---------------------------------------------------------------|
|
|  |--3--|                    |--3--|        |-------6-------|
|  S  S  S  S  S  S  S  S  S  S  S  S  S  S  S  S  S  S  S  +S
|-10-------------------10-13-10-13-10----10-16-13-16-13-10-(10)-|
|----12-------------12----------------12------------------------|
|-------13-10-13-13---------------------------------------------|
|---------------------------------------------------------------|
|---------------------------------------------------------------|
|---------------------------------------------------------------|


   |--3--|                    |--3--|
   S  S  S  S  S  S  S  S  S  S  S  S  S  S  Q
|-13----------------------16-16-19-16----16-19\---|
|----15----------------18-------------18----------|
|-------16-13-16-16-19----------------------------|
|-------------------------------------------------|
|-------------------------------------------------|
|-------------------------------------------------|
|
|  |--3--|                    |--3--|
|  S  S  S  S  S  S  S  S  S  S  S  S  S  S  Q
|-10----------------------13-13-16-13----13-16\---|
|----12----------------15-------------15----------|
|-------13-10-13-13-16----------------------------|
|-------------------------------------------------|
|-------------------------------------------------|
|-------------------------------------------------|


  N.C.
  |----6----| |----6----| |-----6------|  |------6-------|
  S S S S S S S S S S S S S  S S  S S  S  S  S  S  S  S  S    Q  Q  H
|-4-5-4---4-5-5-7-5---5-7-7--9-7----7--9--9-10--9-----9-10-|-12----------*|
|-------7-----------9------------10---------------12-------|-------------*|
|----------------------------------------------------------|-------------*|
|----------------------------------------------------------|-------------*|
|----------------------------------------------------------|-------------*|
|----------------------------------------------------------|-------------*|
|
| |----6----| |----6----| |-----6------|  |------6-------|
| S S S S S S S S S S S S S  S S  S S  S  S  S  S  S  S  S    Q  Q  H
|----------------------------------------------------------|-------------*|
|-5-7-5-3-5-7-7-9-7-5-7-9-9-10-9--7-9-10-10-12-10--9-10-12-|-14----------*|
|----------------------------------------------------------|-------------*|
|----------------------------------------------------------|-------------*|
|----------------------------------------------------------|-------------*|
|----------------------------------------------------------|-------------*|



Duration Legend
---------------
W - whole; H - half; Q - quarter; E - 8th; S - 16th; T - 32nd; X - 64th; a - acciaccatura
+ - note tied to previous; . - note dotted; .. - note double dotted
Uncapitalized letters represent notes that are staccato (1/2 duration)
Irregular groupings are notated above the duration line
Duration letters will always appear directly above the note/fret number it represents the
duration for.  Duration letters with no fret number below them represent rests.  Multi-
bar rests are notated in the form Wxn, where n is the number of bars to rest for.  Low
melody durations appear below the staff

Tablature Legend
----------------
 h   - hammer-on
 p   - pull-off
 b   - bend
 pb  - pre-bend
 r   - bend release (if no number after the r, then release immediately)
 /\  - slide into or out of (from/to "nowhere")
 s   - legato slide
 S   - shift slide
 - natural harmonic
[n]  - artificial harmonic
n(n) - tapped harmonic
 ~   - vibrato
 tr  - trill
 T   - tap
 TP  - trem. picking
 PM  - palm muting
\n/  - tremolo bar dip; n = amount to dip
 \n  - tremolo bar down
 n/  - tremolo bar up
/n\  - tremolo bar inverted dip
 =   - hold bend; also acts as connecting device for hammers/pulls
 <> - volume swell (louder/softer)
 x   - on rhythm slash represents muted slash
 o   - on rhythm slash represents single note slash

Misc Legend
-----------
 |  - bar
||  - double bar
||o - repeat start
o|| - repeat end
*|  - double bar (ending)
 :  - bar (freetime)
 $  - Segno
 &  - Coda
Tempo markers -  = BPM(8/16=s8/s16), where s8 = swing 8ths, s16 = swing 16ths

9 comments total. Showing first comments.
+1 reply
mattgab1 wrote on November 5 2008, 08:54 pm

|------------||--------------------------------|---------------------------|
|------------||o-------------------------------|---------------------------|
|------------||--------------------------------|-----------------------6---|
|------------||--------------------------------|-----------------6-7-9-----|
|------------||o---------------------------4---|-----------5-7-9-----------|
|------------||--2-2-2-2-2-2-2-2-2-2-4-5-7---2-|---2-5-7-9-----------------|
* * *

If you watch live versions of this song, you will notice that Paul Gilbert and Bruce Boulliet move their hands up two fret positions and use their 1st, 2nd, and 4th fingers to play the triplet section marked by the asterisks. The pitches listed in the original tab are 100% correct, though.

0 reply
mattgab1 wrote on November 5 2008, 08:55 pm

Ugh, the asterisks are supposed to be by the 4 5 7. You get what I mean.

0 reply
Jarizme wrote on November 10 2008, 07:11 pm

on one part of the intro there' a part where Paul play D,E,F#..G,A,B..and C,D,E(or play 10-12-14 acceding on the low E,A,D string.) It's after you play you play that first riff the second time and the fourth time.

I want to post or [tab]
guest
You may want to rate the tab now too:
select rating
Please do not post tabs as comments. Select "correction" instead!