Oops, an error
Loading. Please wait.

Street Lethal Tab

ver1
ver1

Whole song

Interactive

More versions @911Tabs.com
8,901 views 3 this week
2 commentsread comments
1 2 3 4 5
excellent!
x 6
Autoscroll
+/-
esc
set tempo
stop
Contributor
Difficulty
intermediate
Hey! There's an official Ultimate Guitar app which is ideal
for learning songs when you're away from computer. Get the app
WARNING: You are trying to view
                                    content from Ultimate-Guitar.com
                                    in an unauthorized application,
                                    which is prohibited.

                                    Please use an official Ultimate
                                    Guitar Tabs application for iPhone,
                                    iPad or Android to access legitimate
                                    chords, guitar, bass, and drum tabs
                                    from Ultimate-Guitar.com database.

                                    Type "ultimate guitar tabs" in Apple
                                    App Store's or Android Market's
                                    search to find the application.
RACER X - STREET LETHAL

|---------------------------------|-------------------------0---|
|---------------------------------|-------------------------0---|
|---------------------------------|-----------------------------|
|---------------------------------|-----------------------------|
|---------------------------------|-----------------------------|
|-0-5-5-5-0-5-5-5-0-5-5-5-0-5-5-5-|-0-4-4-4-0-4-4-4-0-4-4-4-----|

|---------------------------------|-------------------------------------------|
|---------------------------------|------------------------------------7h10p7-|
|-------------2-----4-----2-------|-------------6-----------6-7-9-6-7-9-------|
|-------4-----2-----4-----2-------|-6-7-9-6-7-9---9-7-6-7-9-------------------|
|-------4-------------------5-7-9-|-------------------------------------------|
|-2-2-2---2-2---2-2---2-2---------|-------------------------------------------|

|------------------------------|-------------------------------|
|----------------------------3-|-(3)---------------------------|
|-------------2-----4-----2--2-|-(2)-9p7p6---------------------|
|-------4-----2-----4-----2--0-|-(0)------9-7-6----------------|
|-------4----------------------|---------------9-7-5-----------|
|-2-2-2---2-2---2-2---2-2------|--------------------9-7-5-4~~--|

|------------------------------|-----------------------------|
|------------------------------|-----------------------------|
|-------------2-----4-----2----|-----------------------------|
|-------4-----2-----4-----2----|-----------------------------|
|-------4----------------------|-----------------------------|
|-2-2-2---2-2---2-2---2-2------|-0-5-5-5-0-5-5-5-0-4-4-4-0---|

|------------------------------|-----------------------------|
|----------------------------3-|-(3)-------------------------|
|-------------2-----4-----2--2-|-(2)-7p6p4-------------------|
|-------4-----2-----4-----2--0-|-(0)------7-6-4--------------|
|-------4----------------------|---------------7-5-4---------|
|-2-2-2---2-2---2-2---2-2------|--------------------7-5-4-0--|

|---------------------------------|-4-5-7/9-7-5-----------------------------|
|---------------------------3-5-7-|------------9-7-5------------------------|
|-------------2-----4-----2-------|-----------------7-6-4-------------------|
|-------4-----2-----4-----2-------|----------------------7-6-4--------------|
|-------4-------------------------|---------------------------7-5-4---------|
|-2-2-2---2-2---2-2---2-2---------|--------------------------------7-5-4\2~-|

|------------------------------|-------------------------------|
|----------------------------3-|-(3)---------------------------|
|-------------2-----4-----2--2-|-(2)-9p7p6---------------------|
|-------4-----2-----4-----2--0-|-(0)------9-7-6----------------|
|-------4----------------------|---------------9-7-5-----------|
|-2-2-2---2-2---2-2---2-2------|--------------------9-7-5-4~~--|

|------------------------------|-----------------------------|
|------------------------------|-----------------------------|
|-------------2-----4-----2----|-----------------------------|
|-------4-----2-----4-----2----|-----------------------------|
|-------4----------------------|-----------------------------|
|-2-2-2---2-2---2-2---2-2------|-0-5-5-5-0-5-5-5-0-4-4-4-0---|

VERSE twice

|------------------------------|------------------------|
|------------------------------|------------------------|
|-2---------------------4p2--4-|---2-1-2-1-----------2--|
|-2---------------------4p2--4-|---2-2-2-2-----------2--|
|------------------------------|------------------------|
|---2-2-2-2-2-2-2-2-2-2--------|-----------2-2-2-2-2----|

|------------------------------|------------------------|
|------------------------------|------------------------|
|-----------------------4p2--4-|---2-1-2-1-----------4--|
|-----------------------4p2--4-|---2-2-2-2-----------4--|
|------------------------------|------------------------|
|---2-2-2-2-2-2-2-2-2-2--------|-----------2-2-2-2-2----|

|--------------------------------|-----------------------|
|--------------------------------|-----------------------|
|-------------------------6p4--6-|---4-3-4-3-------------|
|-------------------------6p4--6-|---4-4-4-4-------------|
|--------------------------------|-----------------------|
|---4-4-4-4-4-4-4-4-4-4-4--------|-----------4-4-4-4-4-4-|

|--------------------------|
|--------------------------|
|-3-4----------------------|
|-4-4----------------------|
|--------------------------|
|-----0-0-0-0-0-0-0-0-0-0--|

on first time play this tail
|-------------------------|----------------------------------|
|-------------------------|----------------------------------|
|-3-4---------------------|----------------------------------|
|-4-4---------------------|----------------0-----2-0---0-4-2-|
|-------------------------|-2-0----0-4-2-0---4-2-----4-------|
|-----0-0-0-0-0-0-0-0-0-0-|-----4----------------------------|

On second time finish with this as tail
                                 
|------------------|------------------------|
|-----4------------|---------------\--------|
|-3-4-4------------|----------------\6------|
|-4-4--------------|-----------------\------|
|------------------|------------------------|
|------------------|-0-----------(0)--------|

CHORUS
|-------------------|----------------------|
|-------------------|----------------------|
|-6-------------4h6-|-6--------------------|
|-6-------------4h6-|-6--------------------|
|-4-------------4---|-4--------------------|
|-------------------|----------------------|

|-----------------|--------------------|
|-5-------4-------|--------------------|
|-4-------4-------|-6------------------|
|-4-------4-------|-6------------------|
|-2-------2-------|-4------------------|
|-----------------|--------------------|

|------------------|-------------------|
|------------------|-------------------|
|-6------------4h6-|-6-----------------|
|-6------------4h6-|-6-----------------|
|-4------------4---|-4-----------------|
|------------------|-------------------|

|------------------|---------------------|
|-5-------4--------|---------------------|
|-4-------4--------|---------------------|
|-4-------4--------|-6-5-4-2---------4---|
|-2-------2--------|---------4-3-2-0-4---|
|------------------|-----------------2---|

|------------------|--------------------|
|------------------|--------------------|
|------------------|--------------------|
|-2----------------|-3------------------|
|-2----------------|-3------------------|
|-0----------------|-1------------------|

Then Verse 
Then Chorus

Lead in to solo

|---------14--------------14--------------14-15-17/19-17-15---------|
|-14-15-17--17-15-14-15-17--17-15-14-15-17-----------------19-17-15-|
|-------------------------------------------------------------------|
|-------------------------------------------------------------------|
|-------------------------------------------------------------------|
|-------------------------------------------------------------------|
|
|
|---------10--------------10--------------10-12-14/15-14-12---------|
|-10-12-14--14-12-10-12-14--14-12-10-12-14-----------------15-14-12-|
|-------------------------------------------------------------------|
|-------------------------------------------------------------------|
|-------------------------------------------------------------------|
|-------------------------------------------------------------------|

|---------14--------------14--------------14-15-17/19-17-15---------|
|-14-15-17--17-15-14-15-17--17-15-14-15-17-----------------19-17-15-|
|-------------------------------------------------------------------|
|-------------------------------------------------------------------|
|-------------------------------------------------------------------|
|-------------------------------------------------------------------|
|
|
|---------10--------------10--------------10-12-14/15-14-12---------|
|-10-12-14--14-12-10-12-14--14-12-10-12-14-----------------15-14-12-|
|-------------------------------------------------------------------|
|-------------------------------------------------------------------|
|-------------------------------------------------------------------|
|-------------------------------------------------------------------|

SOLO

|-----------------------12h14h16p14p12h14p12\11h12p11---11---------------------|
|-19b--------14p12h14h16-----------------------------h14--14p12h14p12p11h12p11-|
|------------------------------------------------------------------------------|
|------------------------------------------------------------------------------|
|------------------------------------------------------------------------------|
|------------------------------------------------------------------------------|

|---------11-16p11\9h11--12p11p9h11p9-------------9-11-9-------------------------|
|-------12---------------------------12p11p9h11h12------12-11-9------------------|
|-h12h13-------------------------------------------------------11-9-8------------|
|--------------------------------------------------------------------11-9-8-9-11-|
|--------------------------------------------------------------------------------|
|--------------------------------------------------------------------------------|

|--------------------------------------------9h11h12p11p9---9---------------|
|-------------------------------------9h11h12------------h12-12p11p9h11h12--|
|-8h9p8\6------------------------11b----------------------------------------|
|--------9-8-6--------------------------------------------------------------|
|-------------9-7-6---------------------------------------------------------|
|------------------9-7-6\4~~~~----------------------------------------------|

|-9h11h12p11p9----------------------------------|
|-------------12-11-9---------------------------|
|--------------------11-9-8-----------8h9p8~~~--|
|--------------------------11-9-8-9-11----------|
|-----------------------------------------------|
|-----------------------------------------------|

|----------------------------------------------------------------------------|
|----------------------------------------------------------------------------|
|----------------------------------------------------------------------------|
|------------------------------------------13--------------13-14-16-13-14-16-|
|---------13--------------13-14-16-13-14-16--16-14-13-14-16------------------|
|-12-14-16--16-14-12-14-16---------------------------------------------------|

|----------------------------------------------------------------|
|----------------------------------------------------------------|
|-13--------------13-15-16-15h16p15p13h15p13------------15-16-18-|
|---16-14-13-14-16--------------------------h16-14-16-18---------|
|----------------------------------------------------------------|
|----------------------------------------------------------------|

|---------16--------------16-18-19-18-16--16-19B~~~--|
|-16-17-19--19-17-16-17-19--------------19-----------|
|----------------------------------------------------|
|----------------------------------------------------|
|----------------------------------------------------|
|----------------------------------------------------|

|-----18-21p18\16h18h19p18p16h18p16------------------------------|
|---19-----------------------------19p17h19p17p16\15h16h18p16p15-|
|-20-------------------------------------------------------------|
|----------------------------------------------------------------|
|----------------------------------------------------------------|
|----------------------------------------------------------------|

|-----------------------------------------------------------|
|----15-------------------15h16h19p16p15---15---------------|
|-h18--18p16h18p16p15---15--------------h18--18p16h18p16p15-|
|--------------------h18------------------------------------|
|-----------------------------------------------------------|
|-----------------------------------------------------------|

|--------------------------------------------------------|
|--------------------------------------------------------|
|----------13-15-16-15-13--15-13-----------------13------|
|-/13-14-16--------------16-----16-14-16-13-14-16--16-14-|
|--------------------------------------------------------|
|--------------------------------------------------------|

|------------------------------------------|
|------------------------------------------|
|------------------------------------------|
|-13--------13-----------------------------|
|---16-14-13--16-14-13---------------------|
|---------------------16---16\\\\\\\\\\\\--|

|-------------------------------------------------------------------|
|-------------------------------------------------14-16-17/19-17-16-|
|-------------------------13--------------13-15-16------------------|
|-----------------13-14-16--16-14-13-14-16--------------------------|
|---------13-14-16--------------------------------------------------|
|-12-14-16----------------------------------------------------------|

|---------16-18-19-18-16-18-19b--21b--|
|-16-17-19----------------------------|
|-------------------------------------|
|-------------------------------------|
|-------------------------------------|
|-------------------------------------|

Post Solo

|------------------------------|-----------------------------|
|----------------------------3-|-(3)-------------------------|
|-------------2-----4-----2--2-|-(2)-7p6p4-------------------|
|-------4-----2-----4-----2--0-|-(0)------7-6-4--------------|
|-------4----------------------|---------------7-5-4---------|
|-2-2-2---2-2---2-2---2-2------|--------------------7-5-4-0--|

|---------------------------------|-------------------------------------------|
|---------------------------------|------------------------------------7h10p7-|
|-------------2-----4-----2-------|-------------6-----------6-7-9-6-7-9-------|
|-------4-----2-----4-----2-------|-6-7-9-6-7-9---9-7-6-7-9-------------------|
|-------4-------------------5-7-9-|-------------------------------------------|
|-2-2-2---2-2---2-2---2-2---------|-------------------------------------------|

|------------------------------|-------------------------------|
|----------------------------3-|-(3)---------------------------|
|-------------2-----4-----2--2-|-(2)-9p7p6---------------------|
|-------4-----2-----4-----2--0-|-(0)------9-7-6----------------|
|-------4----------------------|---------------9-7-5-----------|
|-2-2-2---2-2---2-2---2-2------|--------------------9-7-5-4~~--|

|-----------------------------|---------------------------------|
|-----------------------------|---------------------------------|
|-------------2-----4-----2---|---------------------------------|
|-------4-----2-----4-----2---|---------------------------------|
|-------4---------------------|---------------------------------|
|-2-2-2---2-2---2-2---2-2-----|-0-5-5-5-0-5-5-5-0-5-5-5-0-5-5-5-|

|-------------------------0---|
|-------------------------0---|
|-----------------------------|
|-----------------------------|
|-----------------------------|
|-0-4-4-4-0-4-4-4-0-4-4-4-----|

Bridge twice

|-------------------------------------------------|
|-------------------------------------------------|
|-6-----------4-----------2-----------4-----------|
|-6-----------4-----------2-----------4-----------|
|-4-----------4-----------4-----------2-----------|
|-------------------------------------------------|

Then Chorus 
Then Chorus except play everything a whole step up

Outro lick
|-----------------------------------------------------------|
|-----------------------------------------------------------|
|-----13-11-9------------11-9-8----------9-8-6--------------|
|-9-13-------13-11-9-8-11------11-9-8-6-9-----9-8-6-5----6--|
|----------------------------------------------------6---6--|
|-----------------------------------------------------7--4--|
comments
print report bad tab
2 comments total.
0 reply
wilco5000 wrote on June 26 2007, 01:55 pm

This tab is great thnks man

0 reply
Chris-13 wrote on September 30 2007, 05:46 pm

Wow, looks hard, specially the solo

I want to post or [tab]
guest
You may want to rate the tab now too:
select rating
Please do not post tabs as comments. Select "correction" instead!