Oops, an error
Loading. Please wait.

Technical Difficulties Tab

ver3
ver3
More versions @911Tabs.com
29,751 views 45 this week
1 commentread comment
1 2 3 4 5
excellent!
x 4
Autoscroll
+/-
esc
set tempo
stop
Contributor
Hey! There's an official Ultimate Guitar app which is ideal
for learning songs when you're away from computer. Get the app
WARNING: You are trying to view
                                    content from Ultimate-Guitar.com
                                    in an unauthorized application,
                                    which is prohibited.

                                    Please use an official Ultimate
                                    Guitar Tabs application for iPhone,
                                    iPad or Android to access legitimate
                                    chords, guitar, bass, and drum tabs
                                    from Ultimate-Guitar.com database.

                                    Type "ultimate guitar tabs" in Apple
                                    App Store's or Android Market's
                                    search to find the application.
#----------------------------------PLEASE NOTE---------------------------------#
#This file is the author's own work and represents their interpretation of the #
#song. You may only use this file for private study, scholarship, or research. #
#------------------------------------------------------------------------------#

TECHNICAL DIFFICULTIES
As recorded by Racer X
(From the 1999 Album TECHNICAL DIFFICULTIES)

Transcribed by Adam M. St-Laurent
	

Music by Gilbert, Travis

E5
0 2 2 x x x
	
D5
x x 0 2 3 x
	
C5
x 3 5 5 x x
	
A5
x 0 2 2 x x

Gtr I (E A D G B E) - 'Untitled'
Gtr II (E A D G B E) - 'Untitled'

  Moderate Rock Q=124
 4/4
  Gtr I
  Wx3          H    E E  Q
|------------|---------------||
|------------|---------------||
|------------|---------------||
|------------|---------------||
|------------|---------------||
|------------|--------7s12\--||


   Intro
    $
    (C5)
   4/4
      PM|   PM|   PM|   PM|     PM|     PM|   PM|   PM|    PM---------|
                                                           |-----6-----|
    S S S S S S S S S S S S S S S S   S S S S S S S S S E. S S  S S S  S
||----------------------------------|------------------------------------|
||o---------------------------------|------------------------------------|
||----------------------------------|------------------------------------|
||--5-----4-----5-----4-----4-5-----|-5-----4-----5-----4\---------------|
||o---3-3---3-3---3-3---3-3-----3-3-|---3-3---3-3---3-3-----------7-9-10-|
||----------------------------------|----------------------7-8-10--------|


  (E5)
     PM|   PM|    PM|   PM|     PM|      PM|   PM|    PM|    PM--------|
                                                             |----6----|
   S S S S S S  S S S S S S S S S S    S S S S S S  S S S E. S S S S S S
|-----------------------------------|------------------------------------|
|-----------------------------------|------------------------------------|
|-----------------------------------|------------------------------------|
|-10-----9-----10-----9-----7-9-----|-10-----9-----10-----9\-------------|
|----7-7---7-7----7-7---7-7-----7-7-|----7-7---7-7----7-7----------3-5-7-|
|-----------------------------------|------------------------3-5-7-------|


  (C5)
    PM|   PM|   PM|   PM|     PM|     PM|   PM|   PM|    PM---------|
                                                         |-----6-----|
  S S S S S S S S S S S S S S S S   S S S S S S S S S E. S S  S S S  S
|---------------------------------|------------------------------------|
|---------------------------------|------------------------------------|
|---------------------------------|------------------------------------|
|-5-----4-----5-----4-----4-5-----|-5-----4-----5-----4\---------------|
|---3-3---3-3---3-3---3-3-----3-3-|---3-3---3-3---3-3-----------7-9-10-|
|---------------------------------|----------------------7-8-10--------|


  (E5)
  Gtr I
     PM|   PM|    PM|   PM|     PM|      PM|   PM|    PM|     PM------------|
                                                              |------6-------|
   S S S S S S  S S S S S S S S S S    S S S S S S  S S S E.  S  S  S  S  S  S
|-----------------------------------|------------------------------------------|
|-----------------------------------|------------------------------------------|
|-----------------------------------|------------------------------------------|
|-10-----9-----10-----9-----7-9-----|-10-----9-----10-----9\----------10-12-14-|
|----7-7---7-7----7-7---7-7-----7-7-|----7-7---7-7----7-7----10-12-14----------|
|-----------------------------------|------------------------------------------|
|
| Gtr II
|                                                             PM------------|
|                                                             |------6-------|
|  W                                   H                Q     S  S  S  S  S  S
|-----------------------------------|------------------------------------------|
|-----------------------------------|------------------------------------------|
|-----------------------------------|------------------------------------------|
|-----------------------------------|----------------------------------7--9-10-|
|-----------------------------------|-------------------------7--9-10----------|
|-----------------------------------|------------------------------------------|


  (C5)
      PM|      PM|      PM|      PM|         PM|
   S  S  S  S  S  S  S  S  S  S  S  S  S  S  S  S
|-------------------------------------------------|
|-------------------------------------------------|
|-12-------11-------12-------11-------11-12-------|
|----10-10----10-10----10-10----10-10-------10-10-|
|-------------------------------------------------|
|-------------------------------------------------|
|
|     PM|      PM|      PM|      PM|         PM|
|  S  S  S  S  S  S  S  S  S  S  S  S  S  S  S  S
|-------------------------------------------------|
|-------------------------------------------------|
|--9--------7--------9--------7--------7--9-------|
|-----5--5-----5--5-----5--5-----5--5--------5--5-|
|-------------------------------------------------|
|-------------------------------------------------|


      PM|      PM|      PM|       PM------------|
                                  |------6-------|
   S  S  S  S  S  S  S  S  S  E.  S  S  S  S  S  S
|--------------------------------------------------|
|--------------------------------------------------|
|-12-------11-------12-------11\-------------------|
|----10-10----10-10----10-10--------------14-16-17-|
|--------------------------------14-15-17----------|
|--------------------------------------------------|
|
|     PM|      PM|      PM|       PM------------|
|                                 |------6-------|
|  S  S  S  S  S  S  S  S  S  E.  S  S  S  S  S  S
|--------------------------------------------------|
|--------------------------------------------------|
|--9--------7--------9--------7\-------------------|
|-----5--5-----5--5-----5--5--------------10-12-14-|
|--------------------------------10-12-14----------|
|--------------------------------------------------|


  (E5)
      PM|      PM|      PM|      PM|         PM|
   S  S  S  S  S  S  S  S  S  S  S  S  S  S  S  S
|-------------------------------------------------|
|-------------------------------------------------|
|-17-------16-------17-------16-------14-16-------|
|----14-14----14-14----14-14----14-14-------14-14-|
|-------------------------------------------------|
|-------------------------------------------------|
|
|     PM|      PM|      PM|      PM|         PM|
|  S  S  S  S  S  S  S  S  S  S  S  S  S  S  S  S
|-------------------------------------------------|
|-------------------------------------------------|
|-14-------12-------14-------12-------11-12-------|
|----10-10----10-10----10-10----10-10-------10-10-|
|-------------------------------------------------|
|-------------------------------------------------|


      PM|      PM|      PM|
                                  |------6-------|
   S  S  S  S  S  S  S  S  S  E.  S  S  S  S  S  S
|--------------------------------14p12p10----------|
|--------------------------------------------------|
|-17-------16-------17-------16\----------14p12p11-|
|----14-14----14-14----14-14-----------------------|
|--------------------------------------------------|
|--------------------------------------------------|
|
|     PM|      PM|      PM|
|                                 |------6-------|
|  S  S  S  S  S  S  S  S  S  E.  S  S  S  S  S  S
|--------------------------------17p15p14----------|
|--------------------------------------------------|
|-14-------12-------14-------12\----------17p16p14-|
|----10-10----10-10----10-10-----------------------|
|--------------------------------------------------|
|--------------------------------------------------|


  (Bm)
      PM|      PM|      PM|
                                  |------6-------|
   S  S  S  S  S  S  S  S  S  E.  S  S  S  S  S  S
|--------------------------------17p14p11----------|
|--------------------------------------------------|
|-12-------11-------12-------11\----------17p14p11-|
|-----9--9-----9--9-----9--9-----------------------|
|--------------------------------------------------|
|--------------------------------------------------|
|
|     PM|      PM|      PM|
|                                 |------6-------|
|  S  S  S  S  S  S  S  S  S  E.  S  S  S  S  S  S
|--------------------------------20p17p14----------|
|--------------------------------------------------|
|-16-------14-------16-------14\----------20p17p14-|
|----12-12----12-12----12-12-----------------------|
|--------------------------------------------------|
|--------------------------------------------------|


                                         To Coda
  (B)
      PM|      PM|      PM|
                                  |------6-------|
   S  S  S  S  S  S  S  S  S  E.  S  S  S  S  S  S
|-----------------------------------------15-17-19-|
|--------------------------------15-17-19----------|
|-17-------16-------17-------16\-------------------|
|----13-13----13-13----13-13-----------------------|
|--------------------------------------------------|
|--------------------------------------------------|
|
|     PM|      PM|      PM|
|                                 |------6-------|
|  S  S  S  S  S  S  S  S  S  E.  S  S  S  S  S  S
|-----------------------------------------19-20-22-|
|--------------------------------19-20-22----------|
|-21-------20-------21-------20\-------------------|
|----16-16----16-16----16-16-----------------------|
|--------------------------------------------------|
|--------------------------------------------------|


  N.C.
   |------6-------|  |------6-------|  |------6-------|  |------6-------|
   S  S  S  S  S  S  S  S  S  S  S  S  S  S  S  S  S  S  S  S  S  S  S  S
|-20-19-17----------------------------------------------------------------|
|----------20-19-17-20-19-17----------------------------------------------|
|----------------------------19-17-16-19-17-16----------------------------|
|----------------------------------------------19-17-16-19-17-16----------|
|----------------------------------------------------------------19-17-15-|
|-------------------------------------------------------------------------|
|
|  |------6-------|  |------6-------|  |------6-------|  |------6-------|
|  S  S  S  S  S  S  S  S  S  S  S  S  S  S  S  S  S  S  S  S  S  S  S  S
|-24-22-20----------------------------------------------------------------|
|----------24-22-20-24-22-20----------------------------------------------|
|----------------------------23-21-19-23-21-19----------------------------|
|----------------------------------------------22-21-19-22-21-19----------|
|----------------------------------------------------------------22-21-19-|
|-------------------------------------------------------------------------|


   |------6-------|  |------6-------|
   S  S  S  S  S  S  S  S  S  S  S  S  Q    Q
|------------------------------------------------||
|-----------------------------------------------o||
|------------------------------------------------||
|-------------------------------------14\--------||
|-19-17-15-------------------14-15-17-----------o||
|----------19-17-15-14-15-17---------------12\---||
|
|  |------6-------|  |------6-------|
|  S  S  S  S  S  S  S  S  S  S  S  S  Q    Q
|------------------------------------------------||
|-----------------------------------------------o||
|------------------------------------------------||
|-------------------------------------17\--------||
|-22-21-19-------------------17-19-21-----------o||
|----------22-20-19-17-19-20---------------15\---||


   Bridge
    (A5)
    S S S S S S S S S S S S S S S S   S S S S S S S S S S S S S S S S
||----------------------------------|----------------------------------|
||o---------------------------------|----------------------------------|
||----------------------------------|----------------------------------|
||----------------------------------|----------------------------------|
||o-0-0-----0-0-----0-----0---0-----|-0-0-----0-0-----0-----0---0------|
||------3p0-----3p0---3p0-------3p0-|-----3p0-----3p0---3p0-------3p0--|


  (E5)
  Gtr I
  S S S S S S S S S E.    Q     S  S  S  S  S  S  S  S  S  E.      Q
|----------------------------|-----------------------------------------||
|----------------------------|----------------------------------------o||
|----------------------------|--9--9p=7-----7--------------------------||
|-2-2p0---0------------------|-----------9-----9p=7-----7--------------||
|-------2---2p0---0----------|----------------------10----10b10.5--7--o||
|---------------3---3b3.5-0--|-----------------------------------------||
|
| Gtr II
| S S S S S S S S S E.    Q     S  S  S  S  S  S  S  S  S  E.      Q
|----------------------------|-----------------------------------------||
|----------------------------|-17-17p15----15-------------------------o||
|----------------------------|----------16----16p14----14--------------||
|-2-2p0---0------------------|----------------------17----17b17.5-14---||
|-------2---2p0---0----------|----------------------------------------o||
|---------------3---3b3.5-0--|-----------------------------------------||


    (A5)                                  (B5)
    S S  S S S S  S S S  S S S S S  S S   S S S S S S S S S S S S S S S S
||--------------------------------------|----------------------------------|
||o-------------------------------------|----------------------------------|
||--------------------------------------|----------------------------------|
||--------------------------------------|----------------------------------|
||o-0-0------0-0------0------0---0------|-2-2p0---2-2p0---2p0---2---2p0----|
||-------3p0------3p0----3p0--------3p0-|-------2-------2-----2---------2--|
|
|   S S  S S S S  S S S  S S S S S  S S   S S S S S S S S S S S S S S S S
||--------------------------------------|----------------------------------|
||o-------------------------------------|----------------------------------|
||--------------------------------------|----------------------------------|
||--7-7------7-7------7------7---7------|-9-9p7---9-9p7---9p7---9---9p7----|
||o-----10p7-----10p7---10p7-------10p7-|-------9-------9-----9---------9--|
||--------------------------------------|----------------------------------|


  (C5)
   S  S S S  S  S S S  S S S  S S  S S S
|----------------------------------------|
|----------------------------------------|
|----------------------------------------|
|----------------------------------------|
|--3--3-2p0--3--3-2p0--3-2p0--3----3-2p0-|
|----------------------------------------|
|
|  S  S S S  S  S S S  S S S  S S  S S S
|----------------------------------------|
|----------------------------------------|
|----------------------------------------|
|-10-10-9p7-10-10-9p7-10-9p7-10---10-9p7-|
|----------------------------------------|
|----------------------------------------|


  1.
  (D5)
  S S  S S S S  S S S S  S S  S S  E
|---------------------------------------||
|--------------------------------------o||
|---------------------------------------||
|-0-0------0-0------2p0--4p0--5p0--7\---||
|------3p0------3p0--------------------o||
|---------------------------------------||
|
| S S  S S S S  S S S S  S S  S S  E
|---------------------------------------||
|---------------------------------10\--o||
|-7-7------7-7------9p7-11p7-12p7-------||
|-----10-7-----10-7---------------------||
|--------------------------------------o||
|---------------------------------------||


  2.
  (D5)
  S S  S S S S  S S  E  S  S  S  S  E
|--------------------------------------|
|--------------------------------------|
|--------------------2--4p=2--5p=2--7\-|
|-0-0------0-0-------------------------|
|------3p0------3p0--------------------|
|--------------------------------------|
|
| S S  S S S S  S S  E  S  S  S  S  E
|--------------------------------------|
|-------------------10-12p10-13p10-15\-|
|-7-7------7-7-------------------------|
|-----10-7-----10-7--------------------|
|--------------------------------------|
|--------------------------------------|


  (E5)                                                              A5
                                                       2/4
                  |--3--|
   S  S  S  S  S  S  S  S  S  S  E.      E  S  S         +E   E     Q
|-----------------------------------------------------|----------------|
|-----------------------------------------------------|----------------|
|--9--9p=7-----7--------------------------------------|-------------2--|
|-----------9-----9p=8p=7-----7-------------7---------|-------------2--|
|-------------------------10----10b10.5--7----10------|-(10)--7b7.5-0--|
|-----------------------------------------------------|----------------|
|
|                 |--3--|
|  S  S  S  S  S  S  S  S  S  S  E.      E  S  S         +E   E     Q
|-----------------------------------------------------|----------------|
|-17-17p15----15--------------------------------------|----------------|
|----------16----16p15p14----14------------14---------|----------------|
|-------------------------17----17b17.5-14----17b17.5-|-(17)-14--------|
|-----------------------------------------------------|----------------|
|-----------------------------------------------------|----------------|


  D5
 4/4
  W          +W           +W           +H.       Q
|----------|------------|------------|---------------||
|-3--------|-(3)--------|-(3)--------|-(3)-----------||
|-2--------|-(2)--------|-(2)--------|-(2)-----------||
|-0--------|-(0)--------|-(0)--------|-(0)-----------||
|----------|------------|------------|---------------||
|----------|------------|------------|----------12\--||


 Breakdown
  Q=120
  (Em)
    |-3-|     |-3-|           |-3-|     |-3-|
  E S S S E E S S S E E E   E S S S E E S S S E S S S S
|-------------------------|-----------------------------|
|-------------------------|-----------------------------|
|-9---------9-------------|-9---------9-----------------|
|-9---------9-------------|-9---------9-----------------|
|-7---------7-------------|-7---------7-----------------|
|---0-0-0-0---0-0-0-0-0-0-|---0-0-0-0---0-0-0-0-0-0-0-0-|


  (Em7)
    |-3-|     |-3-|           |-3-|     |-3-|
  E S S S E E S S S E E E   E S S S E E S S S E S S S S
|-------------------------|-----------------------------|
|-8---------8-------------|-8---------8-----------------|
|-7---------7-------------|-7---------7-----------------|
|-5---------5-------------|-5---------5-----------------|
|-------------------------|-----------------------------|
|---0-0-0-0---0-0-0-0-0-0-|---0-0-0-0---0-0-0-0-0-0-0-0-|


  (Am/E)
     |-3-|      |-3-|            |-3-|      |-3-|
   E S S S E  E S S S E E E    E S S S E  E S S S E S S S S
|---------------------------|-------------------------------|
|-10---------10-------------|-10---------10-----------------|
|--9----------9-------------|--9----------9-----------------|
|--7----------7-------------|--7----------7-----------------|
|---------------------------|-------------------------------|
|----0-0-0-0----0-0-0-0-0-0-|----0-0-0-0----0-0-0-0-0-0-0-0-|


  (C/E)                                             (D5)
     |-3-|      |-3-|            |-3-|
   E S S S E  E S S S E E E    E S S S E  E S S S S  Q
|---------------------------|----------------------------||
|-13---------13-------------|-13---------13---------15\--||
|-12---------12-------------|-12---------12---------14\--||
|-10---------10-------------|-10---------10---------12\--||
|---------------------------|----------------------------||
|----0-0-0-0----0-0-0-0-0-0-|----0-0-0-0----0-0-0-0------||


  (E5)
  Gtr I
  ~~~~~~~~~~~~~~~~~~~~~~~~~~~~~~~~~~~~~~~~~~~~~~~~~~~~~~~~~
  W                         +W
|-------------------------|-------------------------------|
|-------------------------|-------------------------------|
|-9-----------------------|-(9)---------------------------|
|-------------------------|-------------------------------|
|-------------------------|-------------------------------|
|-------------------------|-------------------------------|
|
| Gtr II
|   |-3-|     |-3-|             |-3-|     |-3-|
| E S S S E E S S S E E E    E  S S S E E S S S E S S S S
|-------------------------|-------------------------------|
|-------------------------|-------------------------------|
|-9---------9-------------|--9----------9-----------------|
|-9---------9-------------|--9----------9-----------------|
|-7---------7-------------|--7----------7-----------------|
|---0-0-0-0---0-0-0-0-0-0-|-----0-0-0-0---0-0-0-0-0-0-0-0-|


  (Em7)
 ~~~~~~~~~~~~~~~~~~~~~~~~~~~~~~~~~~
    W                          +W
|---------------------------|-----------------------------------|
|---------------------------|-----------------------------------|
|-/12-----------------------|-(12)------------------------------|
|---------------------------|-----------------------------------|
|---------------------------|-----------------------------------|
|---------------------------|-----------------------------------|
|
|     |-3-|     |-3-|              |-3-|     |-3-|
|   E S S S E E S S S E E E     E  S S S E E S S S E S S S S
|---------------------------|-----------------------------------|
|---8---------8-------------|---8----------8--------------------|
|---7---------7-------------|---7----------7--------------------|
|---5---------5-------------|---5----------5--------------------|
|---------------------------|-----------------------------------|
|-----0-0-0-0---0-0-0-0-0-0-|------0-0-0-0---0-0-0-0-0-0-0-0----|


  (Am/E)
    ~~~~~~~~~~~~~~~~~~~~~~~~~~~~~~~~~~~~~~~~~~~~~~~~~~~~~~~~~~~~
    W                           +W
|----------------------------|---------------------------------|
|----------------------------|---------------------------------|
|-/14------------------------|-(14)----------------------------|
|----------------------------|---------------------------------|
|----------------------------|---------------------------------|
|----------------------------|---------------------------------|
|
|     |-3-|      |-3-|              |-3-|      |-3-|
|   E S S S E  E S S S E E E     E  S S S E  E S S S E S S S S
|----------------------------|---------------------------------|
|--10---------10-------------|--10----------10-----------------|
|---9----------9-------------|---9-----------9-----------------|
|---7----------7-------------|---7-----------7-----------------|
|----------------------------|---------------------------------|
|-----0-0-0-0----0-0-0-0-0-0-|------0-0-0-0----0-0-0-0-0-0-0-0-|


  (C/E)                                                (D5)
 ~~~~~~~~~~~~~~~~~~~~~~~~~~~~~~~~~~~
    W                           +H.                     Q
|----------------------------|-------------------------------||
|-/13------------------------|-(13)--------------------15\---||
|----------------------------|-------------------------------||
|----------------------------|-------------------------------||
|----------------------------|-------------------------------||
|----------------------------|-------------------------------||
|
|     |-3-|      |-3-|              |-3-|
|   E S S S E  E S S S E E E     E  S S S E  E S S S S  Q
|----------------------------|-------------------------------||
|--13---------13-------------|--13----------13---------15\---||
|--12---------12-------------|--12----------12---------14\---||
|--10---------10-------------|--10----------10---------12\---||
|----------------------------|-------------------------------||
|-----0-0-0-0----0-0-0-0-0-0-|------0-0-0-0----0-0-0-0-------||


 Guitar Solo
  E5
   ~~~~~
   W
|--------------|
|-15b17--------|
|--------------|
|--------------|
|--------------|
|--------------|
|
|  W
|--------------|
|--------------|
|--------------|
|--2-----------|
|--2-----------|
|--0-----------|


   |-----6------| |-----6-----|  |------6-------|  |------6-------|
   S   S  S S S S S S  S S S  S  S  S  S  S  S  S  S  S  S  S  S  S
|-------------------------------------------------------------12h15-|
|--------------------------8-10-------------12-15----------15-------|
|-------------7-9--------9---------------14-------12-14-16----------|
|-----------9-----7-9-12--------12-14-17----------------------------|
|--7--10-12---------------------------------------------------------|
|-------------------------------------------------------------------|
|
| +W
|-------------------------------------------------------------------|
|-------------------------------------------------------------------|
|-------------------------------------------------------------------|
|-(2)---------------------------------------------------------------|
|-(2)---------------------------------------------------------------|
|-(0)---------------------------------------------------------------|


  D5
   ~~                                ~~
   H     +E   E       +E     S  S    W
|-14----(14)-17b19r==(17)---17p15-|-17----|
|---------------------------------|-------|
|---------------------------------|-------|
|---------------------------------|-------|
|---------------------------------|-------|
|---------------------------------|-------|
|
|         |-------3-------|
|  H      Q        Q      Q          W
|---------0-----------------------|-------|
|--3---------------3--------------|--3----|
|--2----------------------2-------|--2----|
|--0------------------------------|--0----|
|---------------------------------|-------|
|---------------------------------|-------|


  C5                B5
            |--3--|            |--3--|
   H        E  E  E  S      S  S  S  S
|-22b24----22-20-19-20-----19h20p19s17-|
|--------------------------------------|
|--------------------------------------|
|--------------------------------------|
|--------------------------------------|
|--------------------------------------|
|
|  H.                Q
|--------------------------------------|
|--------------------------------------|
|--5-----------------------------------|
|--5-----------------------------------|
|--3-----------------2b2.5-------------|
|--------------------------------------|


  A5                                      G5
          |--3--|        |--3--|  |--3--|  |----3----|
   S   S  S  S  S  S  S  S  S  S  E  E  E  E      E  E
|-19--17h19p17s15-17-15h17p15s14-15-14s12h14--------12-|
|------------------------------------------------15----|
|------------------------------------------------------|
|------------------------------------------------------|
|------------------------------------------------------|
|------------------------------------------------------|
|
|  H.                                      Q
|------------------------------------------------------|
|------------------------------------------------------|
|--2---------------------------------------------------|
|--2---------------------------------------------------|
|--0---------------------------------------------------|
|------------------------------------------3b3.5-------|


  E5
   ~~~~~
   H        S  S  S  S  T  T  T  T  T  T  T  T
|----------12----------12----------------------|
|-15b17-------15p12-------15p12----12----------|
|-------------------15----------15----15p14p12-|
|----------------------------------------------|
|----------------------------------------------|
|----------------------------------------------|
|
|  W
|----------------------------------------------|
|----------------------------------------------|
|----------------------------------------------|
|--2-------------------------------------------|
|--2-------------------------------------------|
|--0-------------------------------------------|


                             ~
                     |--3--|
   S   S  E     +E   S  S  S H
|-------------------------------------||
|-------------------------------------||
|-----12-14b16r(14)-12h14p12s9--------||
|-14----------------------------------||
|-------------------------------------||
|-------------------------------------||
|
| +H.                            Q
|-------------------------------------||
|-------------------------------------||
|-------------------------------------||
|-(2)---------------------------------||
|-(2)---------------------------------||
|-(0)---------------------------12\---||


  E5
  Gtr II
   W                       +W
   |                        |
   /                        /

  Gtr I
                 |-3--|                         |--3--|  |--3--|
   H        E  E E E  E    +E   E     +E   S S  Q     E  E  E  E
|-----------------------|----------------------14b15-14p12----12-|
|-----------------------|----------------------------------15----|
|-11b12------------9-11-|-(11)-11b12-(11)-11p9-------------------|
|----------------9------|----------------------------------------|
|-------------10--------|----------------------------------------|
|----------12-----------|----------------------------------------|


  D5
         |-------3--------|
   H     Q     Q          Q
   |     |     |          |
   /     o     o          o

   ~~
            |--3--|
   H     E  S  S  S  S  S    S  S
|-------14-10h14p10----------------|
|-15-------------------------------|
|-------------------14p12p==11-----|
|------------------------------12--|
|----------------------------------|
|----------------------------------|


  D5
   W
   |
   /

   |------6-------|  |------6-------|  |--------7--------|  |------6-------|
   S  S  S  S  S  S  S  S  S  S  S  S  S  S  S  S  S  S  S  S  S  S  S  S  S
|----------10----------------------10----------------------10h14p10-14p12p10-|
|----------------------------------------------------------------------------|
|-11h12h14----14p12p11----11h12h14----14p12p11----11h12h14-------------------|
|----------------------12----------------------12----------------------------|
|----------------------------------------------------------------------------|
|----------------------------------------------------------------------------|


  C5
   H.                                  Q
   |                                   |
   /                                   o

             |--3--|  |--3--|  |-3--|
   S   S  S  T  T  T  E  E  E  E  E E  E  E
|-----10h12-10h12p10---------------------------|
|-13-----------------13----13------------------|
|-----------------------12----12p11p9-11-11b12r|
|----------------------------------------------|
|----------------------------------------------|
|----------------------------------------------|


  A5
    H.                    Q
    |                     |
    /                     o

    |3-|     |-3--|       |--3--|
   +E  S  E  E E  E E  E  E  E  E
|---------------------------------|
|------------------------10-11-12-|
|-(11)p9------------9-12----------|
|--------10----9-12---------------|
|-----------12--------------------|
|---------------------------------|


  E5
   W
   |
   /

                                       |------6-------|  |------6-------|
   S  S  S  S  T  T  T  T  T  T  T  T  S  S  S  S  S  S  S  S  S  S  S  S
|-12----------------------------------------------------------12----------|
|----15p12----12----------------------12h15p12-14p12----12h15----15p12-15-|
|----------15----15p14p12----12h14h15----------------15-------------------|
|-------------------------14----------------------------------------------|
|-------------------------------------------------------------------------|
|-------------------------------------------------------------------------|


  +H.                                        Q
   |                                         |
   /                                         o

                     T                 ~~~~~
   |------6-------|  |------6-------|
   S  S  S  S  S  S  S  S  S  S  S  S  H
|-12h17p15p12h15h17-19-17p15p12h15h17-17b19-----||
|-----------------------------------------------||
|-----------------------------------------------||
|-----------------------------------------------||
|-----------------------------------------------||
|-----------------------------------------------||


  E5                                        D5                          D5
                                                    |----3----|
   W                    +W                    H     Q Q       Q          W
   |                     |                    |     | |       |          |
   /                     /                    /     o o       o          /

                                     TP       TP                         ~~
             |--3--|     |---3----|
   H         Q  Q  Q     Q  Q  E  E  H       +H.         +E      S  S    W
|---------------------|-------------------|---------------------------|-------|
|---------------------|-------------------|---------------------------|-------|
|-14b16=====14-14-14--|-14-14-14-14-14----|-(14)--------(14)r---14p12-|-14----|
|---------------------|-------------------|---------------------------|-------|
|---------------------|-------------------|---------------------------|-------|
|---------------------|-------------------|---------------------------|-------|


  C5
   H.         Q
   |          |
   /          o

   ~~~~~
              |--3--|
   H.         E  E  E
|------------12-14-15-|
|-15b17---------------|
|---------------------|
|---------------------|
|---------------------|
|---------------------|


  A5
   H.                                        Q
   |                                         |
   /                                         o

   |-----5-----|  |--3--|  |------6-------|  |------6-------|
   S  S  S  S  S  E  E  E  S  S  S  S  S  S  S  S  S  S  S  S
|-14h15p14p12----12-14-15-14h15p14p12----12-14h15p14p12----12-|
|-------------15----------------------15----------------15----|
|-------------------------------------------------------------|
|-------------------------------------------------------------|
|-------------------------------------------------------------|
|-------------------------------------------------------------|


  E5
   W
   |
   /

   |------6-------|  |--------7--------|  |------6-------|  |------6-------|
   S  S  S  S  S  S  S  S  S  S  S  S  S  S  S  S  S  S  S  S  S  S  S  S  S
|-14h15p14p12----12-14p12h14h15p14p12----12h15p12h14p12----12h14h15p14p12h14h=|
|-------------15----------------------15----------------15--------------------|
|-----------------------------------------------------------------------------|
|-----------------------------------------------------------------------------|
|-----------------------------------------------------------------------------|
|-----------------------------------------------------------------------------|


   H.                                                    Q
   |                                                     |
   /                                                     o

                                                   ~~~~~
   T  T  T  T  T  T  T  T  T  T  T  T  T  T  T  T  H
|-15h17p15p14p12h15p12h17p15p14p12h15h17p15p14p12-17b19-----||
|-----------------------------------------------------------||
|-----------------------------------------------------------||
|-----------------------------------------------------------||
|-----------------------------------------------------------||
|-----------------------------------------------------------||


  E5
   W
   |
   /

   H.         E  E
|---------------12-|
|-15---------------|
|-14b16------14----|
|------------------|
|------------------|
|------------------|


  +W
   |
   /

   |------6-------|  |------6-------|  |------6-------|  |------6-------|
   S  S  S  S  S  S  S  S  S  S  S  S  S  S  S  S  S  S  S  S  S  S  S  S
|-15-12-------------------------------------------------------------------|
|-------15-12-------15-12-------------------------------------------------|
|-------------14-12-------14-12-------14-12-------------------------------|
|-------------------------------14-12-------14-12-------14-12-------------|
|-------------------------------------------------14-12-------14-12-------|
|-------------------------------------------------------------------15-12-|


  D5                                        D5
               |--------3---------|
   H           Q       Q          Q          W
   |           |       |          |          |
   /           o       o          o          /

                                                                    ~
   Q.    S  S  S  S  S    S  S  S    S  S    S  S  S  S  S  S  S  S H
|-----------------------------------------|------------------------------|
|-----------------------------------------|------------------------------|
|-----------------------------------11h12-|-14p12p11----11---------------|
|---------------------------12-14---------|----------12----12------------|
|-------------------12---14---------------|-------------------12-10s9----|
|-10----12-10-12s14-----------------------|------------------------------|


  C5
   H.                  Q
   |                   |
   /                   o

              |--3--|  |--3--|
   Q.      E  E  E  E  S  S  S  T  T  T  T
|-------------------------------------------|
|-------------------------------------------|
|-14b16---14p12p11h12-11h12p11----11h12h14--|
|------------------------------14-----------|
|-------------------------------------------|
|-------------------------------------------|


  A5
   H.                                                        Q
   |                                                         |
   /                                                         o

   |-------6-------|  |------6-------|  |--------7--------|
   S   S  S  S  S  S  S  S  S  S  S  S  S  S  S  S  S  S  S  E     +S   S
|-----------------------------12----------------12----------15b17r(15)p12-|
|-12-----------------12-13-15----15-13-12h13h15----15p13p12---------------|
|-----14p12p11h12h14------------------------------------------------------|
|-------------------------------------------------------------------------|
|-------------------------------------------------------------------------|
|-------------------------------------------------------------------------|


                          D.S. al Coda
  E5
   W                     +H.           Q
   |                      |            |
   /                      /            o

      ~~~~~~
   S  E.     +H.          H       E E  Q
|---------------------|---x-----------------||
|-15-15b17==(15)------|-(15)r\--------------||
|---------------------|---x-----------------||
|---------------------|---------------------||
|---------------------|---------------------||
|---------------------|-------------7s12\---||


 Outro
  &
  N.C.
 3/4
  Gtr I
   |--3--|         |------6-------|
   E  E  E  Q      S  S  S  S  S  S
|-14-15-17--------------------------|
|----------15b17-----------13-15-17-|
|-----------------12-14-16----------|
|-----------------------------------|
|-----------------------------------|
|-----------------------------------|
|
| Gtr II
|  |--3--|         |------6-------|
|  E  E  E  Q      S  S  S  S  S  S
|-17-19-20--------------------------|
|----------19b20-----------17-19-20-|
|-----------------16-17-19----------|
|-----------------------------------|
|-----------------------------------|
|-----------------------------------|


                                       Q.=146
                                      6/8
   |--3--|         |------6-------|
   E  E  E  Q      S  S  S  S  S  S     E  E  E  E  E  E
|-----------------------------------||--------------------|
|-12-13-15--------------------------||--------------------|
|----------14b16-----------12-14-16-||-11-12-14-12-14-16--|
|-----------------12-14-16----------||--------------------|
|-----------------------------------||--------------------|
|-----------------------------------||--------------------|
|
|  |--3--|         |------6-------|
|  E  E  E  Q      S  S  S  S  S  S     E  E  E  E  E  E
|-----------------------------------||--------------------|
|-15-17-19--------------------------||--------------------|
|----------17b19-----------16-17-19-||-14-16-17-16-17-19--|
|-----------------16-17-19----------||--------------------|
|-----------------------------------||--------------------|
|-----------------------------------||--------------------|


   E  E  E  E  E  E    E  E  E  E  E  E    E  E  E  E  E  E
|-------------------|-------------------|-12-14-15-14-15-17-|
|-10-12-13-12-13-15-|-13-15-17-15-17-19-|-------------------|
|-------------------|-------------------|-------------------|
|-------------------|-------------------|-------------------|
|-------------------|-------------------|-------------------|
|-------------------|-------------------|-------------------|
|
|  E  E  E  E  E  E    E  E  E  E  E  E    E  E  E  E  E  E
|-------------------|----------14-15-17-|-15-17-19-17-19-20-|
|-13-15-17-15-17-19-|-17-19-20----------|-------------------|
|-------------------|-------------------|-------------------|
|-------------------|-------------------|-------------------|
|-------------------|-------------------|-------------------|
|-------------------|-------------------|-------------------|


               Q=120
                  A5        G5           E5
                 3/4
   +Q.    Q.      H.        H.           H.        +Q.   E  Q
|-(17)\--------||---------|------------|---------|----------------||
|--------------||---------|------------|---------|----------------||
|--------------||-2-------|------------|---------|----------------||
|--------------||-2-------|------------|-2-------|-(2)------------||
|--------------||-0-------|------------|-2-------|-(2)------------||
|--------------||---------|-3b3.5------|-0-------|-(0)---7s12\----||
|
|  +Q.    Q.      H.        H.           H.        +H.
|-(20)\--------||---------|------------|-0-------|-(0)------------||
|--------------||---------|-0----------|-0-------|-(0)------------||
|--------------||-2-------|-0----------|-x-------|----------------||
|--------------||-2-------|-0----------|-2-------|-(2)------------||
|--------------||-0-------|-x----------|-2-------|-(2)------------||
|--------------||---------|-3----------|-0-------|-(0)------------||


  E5
 4/4
  Gtr II
  W
  |
  /

  Gtr I
  PM----------------------------------------------|
  |----6----| |----6----| |-----6-----| |----6----|
  S S S S S S S S S S S S S S  S S S  S S S S S S S
|---------------------------------------------------|
|---------------------------------------------------|
|---------------------------------------------------|
|---------------------------------------------4-5-7-|
|-------3-5-7-------5-7-9--------7-9-10-3-5-7-------|
|-3-5-7-------5-7-8-------7-8-10--------------------|


  +W
   |
   /

   PM----------------------------------------------|
   |----6----| |-----6-----| |----6----| |----6----|
   S S S S S S S S  S S S  S S S S S S S S S S S S S
|----------------------------------------------------|
|----------------------------------------------------|
|----------------------------------4-5-7-------5-7-9-|
|--------5-7-9--------7-9-10-4-5-7-------5-7-9-------|
|--5-7-9-------7-9-10--------------------------------|
|----------------------------------------------------|


  +W
   |
   /

   PM----------------|
   |-----6-----| |----6----| |----6-----| |-----6------|
   S S  S S S  S S S S S S S S S S S S  S S S  S S  S  S
|--------------------------------------------------------|
|----------------------5-7-8-------7-8-10--------8-10-12-|
|---------7-9-11-4-5-7-------5-7-9--------7-9-11---------|
|--7-9-10------------------------------------------------|
|--------------------------------------------------------|
|--------------------------------------------------------|


  +W
   |
   /

   |----6----| |-----6-----| |------6------|  |------6-------|
   S S S S S S S S  S S S  S S  S  S S  S  S  S  S  S  S  S  S
|--------5-7-8--------7-8-10---------8-10-12----------10-12-14-|
|--5-7-8-------7-8-10--------8-10-12---------10-12-13----------|
|--------------------------------------------------------------|
|--------------------------------------------------------------|
|--------------------------------------------------------------|
|--------------------------------------------------------------|


  +W
   |
   /

   |------6-------|  |------6-------|  |------6-------|  |------6-------|
   S  S  S  S  S  S  S  S  S  S  S  S  S  S  S  S  S  S  S  S  S  S  S  S
|----------12-14-15----------14-15-17----------15-17-19----------17-19-20-|
|-12-13-15----------13-15-17----------15-17-19----------17-19-20----------|
|-------------------------------------------------------------------------|
|-------------------------------------------------------------------------|
|-------------------------------------------------------------------------|
|-------------------------------------------------------------------------|


  +W                             h              H
   |                             |
   /                             /

       TP       TP               ~~~~~~
   S  +E.      +Q    H           Q       +Q     H
|-22-(22)b24==(22)r-----------|-22b24===(22)r\-------*|
|-----------------------------|-18b20===(18)r\-------*|
|-----------------------------|----------------------*|
|-----------------------------|----------------------*|
|-----------------------------|----------------------*|
|--------------------3b3.5----|----------------------*|



Duration Legend
---------------
W - whole; H - half; Q - quarter; E - 8th; S - 16th; T - 32nd; X - 64th; a - acciaccatura
+ - note tied to previous; . - note dotted; .. - note double dotted
Uncapitalized letters represent notes that are staccato (1/2 duration)
Irregular groupings are notated above the duration line
Duration letters will always appear directly above the note/fret number it represents the
duration for.  Duration letters with no fret number below them represent rests.  Multi-
bar rests are notated in the form Wxn, where n is the number of bars to rest for.  Low
melody durations appear below the staff

Tablature Legend
----------------
 h   - hammer-on
 p   - pull-off
 b   - bend
 pb  - pre-bend
 r   - bend release (if no number after the r, then release immediately)
 /\  - slide into or out of (from/to "nowhere")
 s   - legato slide
 S   - shift slide
 - natural harmonic
[n]  - artificial harmonic
n(n) - tapped harmonic
 ~   - vibrato
 tr  - trill
 T   - tap
 TP  - trem. picking
 PM  - palm muting
\n/  - tremolo bar dip; n = amount to dip
 \n  - tremolo bar down
 n/  - tremolo bar up
/n\  - tremolo bar inverted dip
 =   - hold bend; also acts as connecting device for hammers/pulls
 <> - volume swell (louder/softer)
 x   - on rhythm slash represents muted slash
 o   - on rhythm slash represents single note slash

Misc Legend
-----------
 |  - bar
||  - double bar
||o - repeat start
o|| - repeat end
*|  - double bar (ending)
 :  - bar (freetime)
 $  - Segno
 &  - Coda
Tempo markers -  = BPM(8/16=s8/s16), where s8 = swing 8ths, s16 = swing 16ths

comments
print report bad tab
1 comment total.
0 reply
lolrofl345 wrote on April 27 2012, 12:15 am

THIS TABS ARE PERFECT! no doubt. thx 4 da tabs :)

I want to post or [tab]
guest
You may want to rate the tab now too:
select rating
Please do not post tabs as comments. Select "correction" instead!