Oops, an error
Loading. Please wait.

Aloha Steve And Danno Tab

ver1
ver1

Whole song

Interactive

More versions @911Tabs.com
3,147 views 3 this week
no commentswrite comment
1 2 3 4 5
excellent!
x 2
Autoscroll
+/-
esc
set tempo
stop
Contributor
Difficulty
novice
Hey! There's an official Ultimate Guitar app which is ideal
for learning songs when you're away from computer. Get the app
WARNING: You are trying to view
                                    content from Ultimate-Guitar.com
                                    in an unauthorized application,
                                    which is prohibited.

                                    Please use an official Ultimate
                                    Guitar Tabs application for iPhone,
                                    iPad or Android to access legitimate
                                    chords, guitar, bass, and drum tabs
                                    from Ultimate-Guitar.com database.

                                    Type "ultimate guitar tabs" in Apple
                                    App Store's or Android Market's
                                    search to find the application.
For those of you that don't have, don't want to, or can't download power tab.
I'm not taking credit for tabbing this, as I didn't, I simply transferred it to ASCII format.

                              ALOHA STEVE AND DANNO
                          As recorded by Radio Birdman
                (From the 1976 Album THE ESSENTIAL RADIO BIRDMAN)

Transcribed by cbliss66@aol.com

Gtr I (E A D G B E) - 'Gtr.1'
Gtr II (E A D G B E) - 'Gtr.II'
Gtr III (E A D G B E) - 'Gtr.III'

 Intro
  Q=205
              $
                 A5
 4/4
  Gtr I
  Wx11           E E E E E E E E   E E E E E E E E   E E E E E E E E
|-------------||-5-5-5-5-5-5-5-5-|-5-5-5-5-5-5-5-5-|-5-5-5-5-5-5-5-5-|
|-------------||-5-5-5-5-5-5-5-5-|-5-5-5-5-5-5-5-5-|-5-5-5-5-5-5-5-5-|
|-------------||-----------------|-----------------|-----------------|
|-------------||-----------------|-----------------|-----------------|
|-------------||-----------------|-----------------|-----------------|
|-------------||-----------------|-----------------|-----------------|
|
| Gtr II
| Wx11           E E E E E E E E   E E E E E E E E   E E E E E E E E
|-------------||-----------------|-----------------|-----------------|
|-------------||-----------------|-----------------|-----------------|
|-------------||-----------------|-----------------|-----------------|
|-------------||-2-2-2-2-2-2-2-2-|-2-2-2-2-2-2-2-2-|-2-2-2-2-2-2-2-2-|
|-------------||-0-0-0-0-0-0-0-0-|-0-0-0-0-0-0-0-0-|-0-0-0-0-0-0-0-0-|
|-------------||-----------------|-----------------|-----------------|


                           Verse
                        $$
                C5G5  A5
  S   +S  E E E E E E E     +W
|-----------------------||--------------------|
|-----------------------||o-------------------|
|-7b9r(7)-5-----5-------||--------------------|
|-----------7-5---7---2-||--(2)---------------|
|---------------------0-||o-(0)---------------|
|-----------------------||--------------------|
|
| E       E E E E E E E     +E  E E E E E E E
|-----------------------||--------------------|
|-----------------------||o-------------------|
|-----------------------||--------------------|
|-2-------2-2-2-5-----2-||--(2)-2-2-2-2-2-2-2-|
|-0-------0-0-0-3-5---0-||o-(0)-0-0-0-0-0-0-0-|
|-----------------3-----||--------------------|


  W                 W
|-----------------|-----------------|
|-----------------|-----------------|
|-----------------|-----------------|
|-2---------------|-2---------------|
|-0---------------|-0---------------|
|-----------------|-----------------|
|
| E E E E E E E E   E E E E E E E E
|-----------------|-----------------|
|-----------------|-----------------|
|-----------------|-----------------|
|-2-2-2-2-2-2-2-2-|-2-2-2-2-2-2-2-2-|
|-0-0-0-0-0-0-0-0-|-0-0-0-0-0-0-0-0-|
|-----------------|-----------------|


                                        Chorus
  1.,2.,3.           4.
          C5G5  A5                C5C#5  D5
  H       E E E E  4x E E E E E E E E    Q  Q  E E E E   +E  E Q  E E E E
|------------------||-----------------||---------------|------------------|
|-----------------o||-----------------||---------------|------------------|
|------------------||-----------------||---------------|------------------|
|-2-------5-----2--||-2-2-2-2-2-2-5-6-||-7--7--7-7-7-7-|-(7)-7-7--7-7-7-7-|
|-0-------3-5---0-o||-0-0-0-0-0-0-3-4-||-5--5--5-5-5-5-|-(5)-5-5--5-5-5-5-|
|-----------3------||-----------------||---------------|------------------|
|
| E E E E E E E E  4x E E E E E E E E    Q  Q  E E E E   +E  E Q  E E E E
|------------------||-----------------||---------------|------------------|
|-----------------o||-----------------||---------------|------------------|
|------------------||-----------------||---------------|------------------|
|-2-2-2-2-5-----2--||-2-2-2-2-2-2-5-6-||-7--7--7-7-7-7-|-(7)-7-7--7-7-7-7-|
|-0-0-0-0-3-5---0-o||-0-0-0-0-0-0-3-4-||-5--5--5-5-5-5-|-(5)-5-5--5-5-5-5-|
|-----------3------||-----------------||---------------|------------------|


  F#5     E5    D5
   Q   Q  E E E E   +E  E Q  E E E E   Q  Q  E E E E   +E  E Q  E E E E
|-----------------|------------------|---------------|------------------|
|-----------------|------------------|---------------|------------------|
|-----------------|------------------|---------------|------------------|
|-11--11--9-9-9-7-|-(7)-7-7--7-7-7-7-|-7--7--7-7-7-7-|-(7)-7-7--7-7-7-7-|
|--9---9--7-7-7-5-|-(5)-5-5--5-5-5-5-|-5--5--5-5-5-5-|-(5)-5-5--5-5-5-5-|
|-----------------|------------------|---------------|------------------|
|
|  Q   Q  E E E E   +E  E Q  E E E E   Q  Q  E E E E   +E  E Q  E E E E
|-----------------|------------------|---------------|------------------|
|-----------------|------------------|---------------|------------------|
|-----------------|------------------|---------------|------------------|
|-11--11--9-9-9-7-|-(7)-7-7--7-7-7-7-|-7--7--7-7-7-7-|-(7)-7-7--7-7-7-7-|
|--9---9--7-7-7-5-|-(5)-5-5--5-5-5-5-|-5--5--5-5-5-5-|-(5)-5-5--5-5-5-5-|
|-----------------|------------------|---------------|------------------|


                      To Dbl. Coda           To Coda D.S. al Coda
  E5
  E E E E E E E E   E E E E E E E E   E E E E E E E E   Q   Q  H
|-----------------|-----------------|-----------------|-------------||
|-----------------|-----------------|-----------------|-------------||
|-----------------|-----------------|-----------------|-------------||
|-9-9-9-9-9-9-9-9-|-9-9-9-9-9-9-9-9-|-9-9-9-9-9-9-9-9-|-9-----------||
|-7-7-7-7-7-7-7-7-|-7-7-7-7-7-7-7-7-|-7-7-7-7-7-7-7-7-|-7-----------||
|-----------------|-----------------|-----------------|-------------||
|
| E E E E E E E E   E E E E E E E E   E E E E E E E E   Q   Q  H
|-----------------|-----------------|-----------------|-------------||
|-----------------|-----------------|-----------------|-------------||
|-----------------|-----------------|-----------------|-------------||
|-9-9-9-9-9-9-9-9-|-9-9-9-9-9-9-9-9-|-9-9-9-9-9-9-9-9-|-9\----------||
|-7-7-7-7-7-7-7-7-|-7-7-7-7-7-7-7-7-|-7-7-7-7-7-7-7-7-|-7\----------||
|-----------------|-----------------|-----------------|-------------||


                   Guitar Solo
  &
                    A5                    G5
  Q  E E E  E Q     Q.      H             +E
|----------------||---------------------------|
|----------------||---------------------------|
|--------5-/9----||-7-------------------------|
|-9--7-7---------||---------7-------------(7)-|
|-7--------------||---------------------------|
|----------------||---------------------------|
|
| Q  Q   H          Q    Q        E  E  E  E
|----------------||---------------------------|
|----------------||---------------------------|
|----------------||---------------------------|
|-9--------------||-2----2-----------2--------|
|-7--------------||-0----0-----------0-----5--|
|----------------||------------------------3--|
|
| Gtr III
| W                 Q    E.    E.    E  E  E
|----------------||---------------------------|
|----------------||-----13----13----12-10-12--|
|----------------||---------------------------|
|----------------||-----10----10-----9--7--9--|
|----------------||---------------------------|
|----------------||---------------------------|


                      A5                   C5
   +Q   E E E Q   E   +W
|-------------------|-------------------------|
|-------------------|-------------------------|
|-------------5-----|-------------------------|
|--(7)--7-7-5-----7-|-(7)---------------------|
|-------------------|-------------------------|
|-------------------|-------------------------|
|
|  +W                  Q    Q      E  E  E  E
|-------------------|-------------------------|
|-------------------|-------------------------|
|-------------------|-------------------------|
|-------------------|--2----2---------2-----5-|
|--(5)--------------|--0----0---------0-----3-|
|--(3)--------------|-------------------------|
|
|  +H.          Q      Q    E.  E.    E  E  E
|-------------------|----------------------12-|
|-(12)--------------|------13--13----12-10----|
|-------------------|-----------------------9-|
|--(9)--------------|------10--10-----9--7----|
|-------------------|-------------------------|
|-------------------|-------------------------|


                      A5                     G5
   +Q   E E E  E Q    Q.       H              +E
|-------------------|-----------------------------|
|-------------------|---------10-------------(10)-|
|-----------5-/9----|-7---------------------------|
|--(7)--7-7---------|-----------------------------|
|-------------------|-----------------------------|
|-------------------|-----------------------------|
|
|  +W                 Q    Q         E  E  E   E
|-------------------|-----------------------------|
|-------------------|-----------------------------|
|-------------------|-----------------------------|
|--(5)--------------|-2----2------------2---------|
|--(3)--------------|-0----0------------0------5--|
|-------------------|--------------------------3--|
|
|  +H.           Q    Q    E.     E.    E  E   E
|-(12)--------------|-----------------------------|
|-------------------|-----13-----13----15-13--12--|
|--(9)--------------|-----------------------------|
|-------------------|-----10-----10----12-10---9--|
|-------------------|-----------------------------|
|-------------------|-----------------------------|


                       D5
   +Q   E +E  E E Q     E E  E E  E E  E E
|--------------------|----0----0----8------|
|-(10)--8-(8)-5------|-10---10---10---10-8-|
|---------------5----|---------------------|
|--------------------|---------------------|
|--------------------|---------------------|
|--------------------|---------------------|
|
|  +W                   E E  E E  E E  E E
|--------------------|---------------------|
|--------------------|---------------------|
|--------------------|---------------------|
|--------------------|--7-7--7-7--7-7--7-7-|
|--(5)---------------|--5-5--5-5--5-5--5-5-|
|--(3)---------------|---------------------|
|
|  +W                   W
|--------------------|---------------------|
|-(12)---------------|---------------------|
|--------------------|---------------------|
|--(9)---------------|---------------------|
|--------------------|---------------------|
|--------------------|---------------------|


  E5                         A5
   E E  E E S S  E E  E   Q    E E E E  E E
|----0----0-8p0----0----|-------------------|
|-10---10-------10---10-|----/10------------|
|-----------------------|----------9-7------|
|-----------------------|--------------10-9-|
|-----------------------|-------------------|
|-----------------------|-------------------|
|
|  E E  E E E    E E  E   Q    E Q   E  Q
|-----------------------|-------------------|
|-----------------------|-------------------|
|-----------------------|-------------------|
|--9-9--9-9-9----9-9--9-|------2-----2------|
|--7-7--7-7-7----7-7--7-|------0-----0------|
|-----------------------|-------------------|


                         D5
  E  E E H      +E    Q   Q.    E  E E
|-------------------|----10-----8------|
|-------------------|-------------10-8-|
|-------------------|------------------|
|-7-----------------|------------------|
|---10-0-0------(0)-|------------------|
|-------------------|------------------|
|
| E  Q   Q.   Q       Q   E  Q  Q    E
|-------------------|------------------|
|-------------------|------------------|
|-------------------|------------------|
|-2------2----2-----|-----7-----7------|
|-0------0----0-----|-----5-----5------|
|-------------------|------------------|


  C5           B5     A5                C5       G5          A5
   E E E Q   E  E E   Q.   H      +E    Q   E  E E  Q  a E   +W
|-------------------|-----------------|--------------------|-------------------|
|-------------------|-----------------|--------------------|-------------------|
|-10-9-7-9---7------|------9------(9)-|-0------------------|-------------------|
|--------------10---|-7---------------|----10-10-9-----5s7-|-(7)---------------|
|-------------------|-----------------|------------10------|-------------------|
|-------------------|-----------------|--------------------|-------------------|
|
|  Q   E Q.     Q     Q.   Q.   Q       H        H            E  E E E E E E E
|-------------------|-----------------|--------------------|-------------------|
|-------------------|-----------------|--------------------|-------------------|
|-------------------|-----------------|--------------------|-------------------|
|--5-----5------4---|-2----2----2-----|-5------------------|--2--2-2-2-2-2-2-2-|
|--3-----3------2---|-0----0----0-----|-3--------5---------|--0--0-0-0-0-0-0-0-|
|-------------------|-----------------|----------3---------|-------------------|


    E5                                   A5                    G5
     E E E E E E E E   E E E E E  E Q    Q.      H             +E
|--------------------|-----------------|---------------------------|
|--------------------|-----------------|---------------------------|
|--------------------|---------5-/9----|-7-------------------------|
|--------------------|-----7-7---------|---------7-------------(7)-|
|---\7-7-7-7-7-7-7-7-|-7---------------|---------------------------|
|--------------------|-----------------|---------------------------|
|
| a  E E E E E E E E   E E Q   H         Q    Q        E  E  E  E
|--------------------|-----------------|---------------------------|
|--------------------|-----------------|---------------------------|
|--------------------|-----------------|---------------------------|
|-7s=9-9-9-9-9-9-9-9-|-9---------------|-2----2-----------2--------|
|-5s=7-7-7-7-7-7-7-7-|-7---------------|-0----0-----------0-----5--|
|--------------------|-----------------|------------------------3--|
|
| Gtr III
|    W                 W                 Q    E.    E.    E  E  E
|--------------------|-----------------|---------------------------|
|--------------------|-----------------|-----13----13----12-10-12--|
|--------------------|-----------------|---------------------------|
|--------------------|-----------------|-----10----10-----9--7--9--|
|--------------------|-----------------|---------------------------|
|--------------------|-----------------|---------------------------|


                      A5                   C5
   +Q   E E E Q   E   +W
|-------------------|--------------------------|
|-------------------|--------------------------|
|-------------5-----|--------------------------|
|--(7)--7-7-5-----7-|-(7)----------------------|
|-------------------|--------------------------|
|-------------------|--------------------------|
|
|  +W                  Q    Q      E  E  E  E
|-------------------|--------------------------|
|-------------------|--------------------------|
|-------------------|--------------------------|
|-------------------|--2----2---------2-----5--|
|--(5)--------------|--0----0---------0-----3--|
|--(3)--------------|--------------------------|
|
|  +H.          Q      Q    E.  E.    E  E  E
|-------------------|----------------------12--|
|-(12)--------------|------13--13----12-10-----|
|-------------------|-----------------------9--|
|--(9)--------------|------10--10-----9--7-----|
|-------------------|--------------------------|
|-------------------|--------------------------|


                      A5                     G5
   +Q   E E E  E Q    Q.       H              +E
|-------------------|-----------------------------|
|-------------------|---------10-------------(10)-|
|-----------5-/9----|-7---------------------------|
|--(7)--7-7---------|-----------------------------|
|-------------------|-----------------------------|
|-------------------|-----------------------------|
|
|  +W                 Q    Q         E  E  E   E
|-------------------|-----------------------------|
|-------------------|-----------------------------|
|-------------------|-----------------------------|
|--(5)--------------|-2----2------------2---------|
|--(3)--------------|-0----0------------0------5--|
|-------------------|--------------------------3--|
|
|  +H.           Q    Q    E.     E.    E  E   E
|-(12)--------------|-----------------------------|
|-------------------|-----13-----13----15-13--12--|
|--(9)--------------|-----------------------------|
|-------------------|-----10-----10----12-10---9--|
|-------------------|-----------------------------|
|-------------------|-----------------------------|


                       D5
   +Q   E +E  E E Q     Q    E Q    E E  E
|--------------------|--0------8------0----|
|-(10)--8-(8)-5------|-10---10-----10---10-|
|---------------5----|---------------------|
|--------------------|---------------------|
|--------------------|---------------------|
|--------------------|---------------------|
|
|  +W                   E E  E E E  E E  E
|--------------------|---------------------|
|--------------------|---------------------|
|--------------------|---------------------|
|--------------------|--7-7--7-7-7--7-7--7-|
|--(5)---------------|--5-5--5-5-5--5-5--5-|
|--(3)---------------|---------------------|
|
|  +W                   W
|--------------------|---------------------|
|-(12)---------------|---------------------|
|--------------------|---------------------|
|--(9)---------------|---------------------|
|--------------------|---------------------|
|--------------------|---------------------|


  E5                      A5
   Q    E Q    E E E   Q    E E E E  E E
|--0------8------0-0-|-------------------|
|-10---10-----10-----|----/10------------|
|--------------------|----------9-7------|
|--------------------|--------------10-9-|
|--------------------|-------------------|
|--------------------|-------------------|
|
|  E E  E E E  E E E   Q    E Q   E  Q
|--------------------|-------------------|
|--------------------|-------------------|
|--------------------|-------------------|
|--9-9--9-9-9--9-9-9-|------2-----2------|
|--7-7--7-7-7--7-7-7-|------0-----0------|
|--------------------|-------------------|


                         D5
  E  E E H      +E    Q   Q.    E  E E
|-------------------|----10-----8------|
|-------------------|-------------10-8-|
|-------------------|------------------|
|-7-----------------|------------------|
|---10-0-0------(0)-|------------------|
|-------------------|------------------|
|
| E  Q   Q.   Q       Q   E  Q  Q    E
|-------------------|------------------|
|-------------------|------------------|
|-------------------|------------------|
|-2------2----2-----|-----7-----7------|
|-0------0----0-----|-----5-----5------|
|-------------------|------------------|


  C5           B5     A5                C5       G5          A5
   E E E Q   E  E E   Q.   H      +E    Q   E  E E  Q  a E   +W
|-------------------|-----------------|--------------------|-------------------|
|-------------------|-----------------|--------------------|-------------------|
|-10-9-7-9---7------|------9------(9)-|-0------------------|-------------------|
|--------------10---|-7---------------|----10-10-9-----5s7-|-(7)---------------|
|-------------------|-----------------|------------10------|-------------------|
|-------------------|-----------------|--------------------|-------------------|
|
|  Q   E Q.     Q     Q.   Q.   Q       H        H            E  E E E E E E E
|-------------------|-----------------|--------------------|-------------------|
|-------------------|-----------------|--------------------|-------------------|
|-------------------|-----------------|--------------------|-------------------|
|--5-----5------4---|-2----2----2-----|-5------------------|--2--2-2-2-2-2-2-2-|
|--3-----3------2---|-0----0----0-----|-3--------5---------|--0--0-0-0-0-0-0-0-|
|-------------------|-----------------|----------3---------|-------------------|


    E5                                   A5                    G5
                                                                TP
     W                 E E E E E  E Q    Q.      H              E
|--------------------|-----------------|--------------------------|
|--------------------|-----------------|--------------------------|
|--------------------|---------5-/9----|-7----------------------0-|
|--------------------|-----7-7---------|---------7----------------|
|---\7---------------|-7---------------|--------------------------|
|--------------------|-----------------|--------------------------|
|
| a  E E E E E E E E   E E Q   H         Q    Q        E  E  E  E
|--------------------|-----------------|--------------------------|
|--------------------|-----------------|--------------------------|
|--------------------|-----------------|--------------------------|
|-7s=9-9-9-9-9-9-9-9-|-9---------------|-2----2-----------2-------|
|-5s=7-7-7-7-7-7-7-7-|-7---------------|-0----0-----------0-----5-|
|--------------------|-----------------|------------------------3-|
|
| Gtr III
|    W                 W                 Q    E.    E.    E  E  E
|--------------------|-----------------|--------------------------|
|--------------------|-----------------|-----13----13----12-10-12-|
|--------------------|-----------------|--------------------------|
|--------------------|-----------------|-----10----10-----9--7--9-|
|--------------------|-----------------|--------------------------|
|--------------------|-----------------|--------------------------|


                 A5                   C5
    TP           TP                    TP
   +W            H..                   E
|--------------|--------------------------|
|--------------|--------------------------|
|--(0)---------|-2---------------------5--|
|--------------|--------------------------|
|--------------|--------------------------|
|--------------|--------------------------|
|
|  +W            Q     Q      E  E  E  E
|--------------|--------------------------|
|--------------|--------------------------|
|--------------|--------------------------|
|--------------|-2-----2---------2-----5--|
|--(5)---------|-0-----0---------0-----3--|
|--(3)---------|--------------------------|
|
|  +H.      Q    Q     E.  E.    E  E  E
|--------------|----------------------12--|
|-(12)---------|------13--13----12-10-----|
|--------------|-----------------------9--|
|--(9)---------|------10--10-----9--7-----|
|--------------|--------------------------|
|--------------|--------------------------|


                 A5                  G5                   D5
    TP            TP                        TP  TP TP     TP  TP  TP
   +W             W                         Q   Q  H      Q   Q   H
|--------------|------------------------|---------------|-----------------|
|--------------|------------------------|---------------|-----------------|
|--(5)---------|-\2---------------------|---0---2--5----|-7---5---2-------|
|--------------|------------------------|---------------|-----------------|
|--------------|------------------------|---------------|-----------------|
|--------------|------------------------|---------------|-----------------|
|
|  +W             Q   Q      E  E  E  E    +W             E E E E E E E E
|--------------|------------------------|---------------|-----------------|
|--------------|------------------------|---------------|-----------------|
|--------------|------------------------|---------------|-----------------|
|--(5)---------|--2---2---------2-------|---------------|-7-7-7-7-7-7-7-7-|
|--(3)---------|--0---0---------0-----5-|--(5)----------|-5-5-5-5-5-5-5-5-|
|--------------|----------------------3-|--(3)----------|-----------------|
|
|  +H.      Q     Q   E.  E.    E  E  E    +W             W
|-(12)---------|------------------------|---------------|-----------------|
|--------------|-----13--13----15-13-12-|-(12)----------|-----------------|
|--(9)---------|------------------------|---------------|-----------------|
|--------------|-----10--10----12-10--9-|--(9)----------|-----------------|
|--------------|------------------------|---------------|-----------------|
|--------------|------------------------|---------------|-----------------|


  E5                       A5                                         D5
  TP  TP  TP
  Q   Q   H         Q    E E E E  E E   E  E E H      +E    Q   Q.    E  E E
|-----------------|-------------------|-------------------|----10-----8------|
|-----------------|----/10------------|-------------------|-------------10-8-|
|-5---2---0-------|----------9-7------|-------------------|------------------|
|-----------------|--------------10-9-|-7-----------------|------------------|
|-----------------|-------------------|---10-0-0------(0)-|------------------|
|-----------------|-------------------|-------------------|------------------|
|
| E E E E E E E E   Q    E Q   E  Q     E  Q   Q.   Q       Q   E  Q  Q    E
|-----------------|-------------------|-------------------|------------------|
|-----------------|-------------------|-------------------|------------------|
|-----------------|-------------------|-------------------|------------------|
|-9-9-9-9-9-9-9-9-|------2-----2------|-2------2----2-----|-----7-----7------|
|-7-7-7-7-7-7-7-7-|------0-----0------|-0------0----0-----|-----5-----5------|
|-----------------|-------------------|-------------------|------------------|


  C5           B5     A5                C5       G5          A5
   E E E Q   E  E E   Q.   H      +E    Q   E  E E  Q  a E   +W
|-------------------|-----------------|--------------------|-------------------|
|-------------------|-----------------|--------------------|-------------------|
|-10-9-7-9---7------|------9------(9)-|-0------------------|-------------------|
|--------------10---|-7---------------|----10-10-9-----5s7-|-(7)---------------|
|-------------------|-----------------|------------10------|-------------------|
|-------------------|-----------------|--------------------|-------------------|
|
|  Q   E Q.     Q     Q.   Q.   Q       H        H            E  E E E E E E E
|-------------------|-----------------|--------------------|-------------------|
|-------------------|-----------------|--------------------|-------------------|
|-------------------|-----------------|--------------------|-------------------|
|--5-----5------4---|-2----2----2-----|-5------------------|--2--2-2-2-2-2-2-2-|
|--3-----3------2---|-0----0----0-----|-3--------5---------|--0--0-0-0-0-0-0-0-|
|-------------------|-----------------|----------3---------|-------------------|


    E5                                  A5
     W                 E H..            H..             E   W
|--------------------|---------------||-------------------|-----------------|
|--------------------|---------------||-------------------|-----------------|
|--------------------|---------------||-2-----------------|-2---------------|
|--------------------|---------------||-2-----------------|-2---------------|
|---\7---------------|-7-------------||-0---------------0-|-0---------------|
|--------------------|---------------||-------------------|-----------------|
|
| a  E E E E E E E E   E E   Q  H       E   E E E E E E E   E E E E E E E E
|--------------------|---------------||-------------------|-----------------|
|--------------------|---------------||-------------------|-----------------|
|--------------------|---------------||-------------------|-----------------|
|-7s=9-9-9-9-9-9-9-9-|-9-------------||-2---2-2-2-2-2-2-2-|-2-2-2-2-2-2-2-2-|
|-5s=7-7-7-7-7-7-7-7-|-7-------------||-0---0-0-0-0-0-0-0-|-0-0-0-0-0-0-0-0-|
|--------------------|---------------||-------------------|-----------------|


               D.S.S. al Dbl. Coda
                            C5G5  A5
  W                 H       E E E E
|-----------------|-----------------||
|-----------------|-----------------||
|-----------------|-----------------||
|-2---------------|-2-------5-----2-||
|-0---------------|-0-------3-5---0-||
|-----------------|-----------3-----||
|
| E E E E E E E E   E E E E E E E E
|-----------------|-----------------||
|-----------------|-----------------||
|-----------------|-----------------||
|-2-2-2-2-2-2-2-2-|-2-2-2-2-5-----2-||
|-0-0-0-0-0-0-0-0-|-0-0-0-0-3-5---0-||
|-----------------|-----------3-----||


  &&
  E5
  E E E E E E E E   E E E E E Q  E
|-----------------|----------------|
|-----------------|----------------|
|-----------------|---------5-4----|
|-9-9-9-9-9-9-9-9-|-9------------7-|
|-7-7-7-7-7-7-7-7-|-7---7-7--------|
|-----------------|----------------|
|
| E E E E E E E E   E E Q   H
|-----------------|----------------|
|-----------------|----------------|
|-----------------|----------------|
|-9-9-9-9-9-9-9-9-|-9--------------|
|-7-7-7-7-7-7-7-7-|-7--------------|
|-----------------|----------------|


   Outro
    A5              G5
    +Q.    Q   +Q    E    +Q    E E E Q     E 11x
||----------------------|----------------------||
||o---------------------|---------------------o||
||-------------------0--|-(0)-------5-4--------||
||--(7)-----------------|-------------------7--||
||o--------7---(7)--(7)-|-(7)---7-7-----------o||
||----------------------|----------------------||
|
|    Q   Q   E  Q    E    +E  E Q   E E +Q    11x
||----------------------|----------------------||
||o---------------------|---------------------o||
||----------------------|----------------------||
||---2---2------2-------|----------------------||
||o--0---0------0----5--|-(5)---5---5-5-(5)---o||
||-------------------3--|-(3)-3-3---3-3-(3)----||


  A5             D5                 G5
  +Q   E E E Q   E   +Q    E E E Q  E   +Q   E E  E  Q.
|------------------|-------------5----|-------------10----|
|------------5-----|-----------6----8-|-(8)--8-8-11-------|
|----------5-----7-|-(7)---7-7--------|-------------------|
|-(7)----7---------|------------------|-------------------|
|------7-----------|------------------|-------------------|
|------------------|------------------|-------------------|
|
|  Q   Q   E E E E   +H..           E   +W
|------------------|------------------|-------------------|
|------------------|------------------|-------------------|
|------------------|------------------|-------------------|
|--2---2---2-2-2-7-|-(7)--------------|-------------------|
|--0---0---0-0-0-5-|-(5)------------5-|-(5)---------------|
|------------------|----------------3-|-(3)---------------|


               C5              A5
   E      +E   Q   E      +Q     E   E E E E E E E E   E E Q  H
|--8------(8)-----10-----(10)------|-5-5-5-5-5-5-5-5-|-5-----------*|
|-11b13==(11)r----13b15==(13)r-----|-5-5-5-5-5-5-5-5-|-5-----------*|
|----------------------------------|-----------------|-------------*|
|----------------------------------|-----------------|-------------*|
|----------------------------------|-----------------|-------------*|
|----------------------------------|-----------------|-------------*|
|
|  E       E   Q   E       E   Q     E E E E E E E E   E E Q  H
|----------------------------------|-----------------|-------------*|
|----------------------------------|-----------------|-------------*|
|----------------------------------|-----------------|-------------*|
|--x-------x---5---x-------x---2---|-2-2-2-2-2-2-2-2-|-2-----------*|
|--x-------x---3---x-------x---0---|-0-0-0-0-0-0-0-0-|-0-----------*|
|----------------------------------|-----------------|-------------*|


Duration Legend
---------------
W - whole; H - half; Q - quarter; E - 8th; S - 16th; T - 32nd; X - 64th; a - acciaccatura
+ - note tied to previous; . - note dotted; .. - note double dotted
Uncapitalized letters represent notes that are staccato (1/2 duration)
Irregular groupings are notated above the duration line
Duration letters will always appear directly above the note/fret number it represents the
duration for.  Duration letters with no fret number below them represent rests.  Multi-
bar rests are notated in the form Wxn, where n is the number of bars to rest for.  Low
melody durations appear below the staff

Tablature Legend
----------------
 h   - hammer-on
 p   - pull-off
 b   - bend
 pb  - pre-bend
 r   - bend release (if no number after the r, then release immediately)
 /\  - slide into or out of (from/to "nowhere")
 s   - legato slide
 S   - shift slide
  - natural harmonic
[n]  - artificial harmonic
n(n) - tapped harmonic
 ~   - vibrato
 tr  - trill
 T   - tap
 TP  - trem. picking
 PM  - palm muting
\n/  - tremolo bar dip; n = amount to dip
 \n  - tremolo bar down
 n/  - tremolo bar up
/n\  - tremolo bar inverted dip
 =   - hold bend; also acts as connecting device for hammers/pulls
 <>  - volume swell (louder/softer)
 x   - on rhythm slash represents muted slash
 o   - on rhythm slash represents single note slash

Misc Legend
-----------
 |  - bar
||  - double bar
||o - repeat start
o|| - repeat end
*|  - double bar (ending)
 :  - bar (freetime)
 $  - Segno
 &  - Coda
Tempo markers -  = BPM(8/16=s8/s16), where s8 = swing 8ths, s16 = swing 16ths


***************************************************************************************
* Generated using Power Tab Editor by Brad Larsen - http://powertab.guitarnetwork.org *
***************************************************************************************
comments
We did not receive enough feedback on this tab! Please rate:
print report bad tab
1 2 3 4 5
I want to post or [tab]
guest
You may want to rate the tab now too:
select rating
Please do not post tabs as comments. Select "correction" instead!