Oops, an error
Loading. Please wait.

250 Miles Tab

ver3
ver3

Whole song

More versions @911Tabs.com
234 views 12 this week
2 commentsread comments
1 2 3 4 5
excellent!
x 2
Autoscroll
+/-
esc
set tempo
stop
Contributor
Difficulty
advanced
Hey! There's an official Ultimate Guitar app which is ideal
for learning songs when you're away from computer. Get the app
WARNING: You are trying to view
                                    content from Ultimate-Guitar.com
                                    in an unauthorized application,
                                    which is prohibited.

                                    Please use an official Ultimate
                                    Guitar Tabs application for iPhone,
                                    iPad or Android to access legitimate
                                    chords, guitar, bass, and drum tabs
                                    from Ultimate-Guitar.com database.

                                    Type "ultimate guitar tabs" in Apple
                                    App Store's or Android Market's
                                    search to find the application.
                                  ~~~~~~~~~~~~~~~~~~~~~~~~~~~~~~~~~~~~~~~~
                                                  250 Miles                         
                                                 Radio Moscow
                                                 Brain Cycles  
                                  ~~~~~~~~~~~~~~~~~~~~~~~~~~~~~~~~~~~~~~~~
Tabbed by: Connor O.
Tuning: Standard



I'm hoping this isn't too confusing. The guitar playing is very fast, and occurs
on double digit frets most of the time, making it difficult to transcribe this 
song in a way that's easily readable for you. Keep an eye where the digits fall
with the beat, especially with the double digit symbols. Here's some examples.


Look where the "1" in the "12" symbol shows up:

  2:10   &=12
   &=12b14
e|---12----------------------------| The 12 here is between the 1st two beats
B|-12----&-15----------------------| The 12 here is on the first beat
G|-&-------------------------------|
D|---------------------------------|
A|---------------------------------|
E|---------------------------------|
   *   *   *   *   *   *   *   *
                                      
  3:13                                      These symbols only span 1 beat each                               
   &=12b14                                        {     } {     } {     }
e|---------12------------------------------------------------------------------|
B|-----12------12------15b~17~r15b~17--pb15----12--15b17---15b17---15b17-------|
G|-&---------------------------------------------------------------------------|
D|-----------------------------------------------------------------------------|
A|-----------------------------------------------------------------------------|
E|-----------------------------------------------------------------------------|
   *   ^   ^   *   ^   ^   *   ^   ^   *   ^   ^  {*}  ^  {^}  *  {^}  ^  
 
                                    These symbols span 2 beats, look at the 1's
   &=pb15                  &=16\14
e|-----------------------------------------------------------------------------|
B|{&~p~12}-----12------12------------------------------------------------------|
G|---------14------14-----{&~~p12}-----12--------------------------------------|
D|---------------------------------14------------------------------------------|
A|-----------------------------------------------------------------------------|
E|-----------------------------------------------------------------------------|
  {*   ^}  ^   *   ^   ^  {*   ^}  ^   *   ^   ^   *   ^   ^   *   ^   ^ 

As you can see in the example above, I split up the beat for Solo 2. That is, the beat shown is 
twice as fast as played by the drummer. The original beat is represented as it was before, with
*'s. It's necessary to do this splitting so that you can more easily read what's going on as 
compared to Solo 1 where I didn't split the beat and use & symbols everywhere. I should probably
go back and edit Solo 1 to make it easier to read, as you can see at the 2nd and 3rd boxes after 
2:22, there are 16th notes that are too fast to fit in with the beat.

One last thing. I cannot say anything about the solo intros/outros (eg 3:00 - 3:13). 
I can't really tell what kind of effect/technique is being used to achieve those sounds besides
the fact that he uses the tremolo arm on a very long sustaining note.

Comment or message any ideas or corrections. Please rate my tab. If you've got
problems with the tab, I'd encourage you to contact me with those problems so I
can fix the tab or provide advice for playing. Don't just give me a poor rating
and not give me any feedback. The idea is for us all to work together to create
a perfect finished product. This tab just represents the best I can do. It's 
definitely up for peer review.



Key:
where # represents a fret number

#h# - hammer
#p# - pull
/ \ - slides, up and down respectively.
#b# - bend from normal note up to achieve bended note.
#r# - release bend from bended note to normal note.
pb# - on fret #, bend up a whole step then attack and release
 b  - picking at the top of a bend. This symbol is always preceeded by a bend.
 t  - trill. This symbol is always preceeded by a hammer-on. Indicates rapid 
      hammer-on and pull-off. Ex: 12h14t means 12h14p12h14p12h14p12h14p12...etc.
 x  - mute
 g  - ghost note, don't attack with picking hand, just fret. creates a nice
      soft sound.
 *  - time keeper. if you kept a steady bassline with your foot, you'd see the 
      notes are displayed in the tab in the correct chronological order. 
 &  - symbol substitution, for when symbols (like double digits)
      are too large to fit in with the time keepers. 


Intro:


  0:00

e|---------------------------------|
B|---------------------------------|
G|---------------------------------|
D|---------------------------------|
A|-----7---7-5---------------------|
E|-0-----0---------0---5p0-5-3-----|
   *   *   *   *   *   *   *   *   

                                    X2                                       

e|---------------------------------|
B|---------------------------------|
G|---------------------------------|
D|-------------5---7---5-------5---|
A|-----7---5h7---7-------0-5h7-----|
E|-0-----0-------------------------|
   *   *   *   *   *   *   *   *  

  0:12

e|---------------------------------|
B|---------------------------------|
G|---------------------------------|
D|---------------------------------|
A|-----7---7-5---------------------|
E|-0-----0---------0---5p0-5-3-----|
   *   *   *   *   *   *   *   *   

  0:15         &=3p0
           &=3/5   &=2b4   &=pb4r2p0
e|-----0-----0---------------------|
B|-------0-&---&-------------------|
G|---------------0-&-b---b-&-------|
D|-----------------------------2---|
A|---------------------------------|
E|-0-------------------------------|
   *   *   *   *   *   *   *   *  

  0:19

e|---------------------------------|
B|---------------------------------|
G|---------------------------------|
D|---------------------------------|
A|-----7---7-5---------------------|
E|-0-----0---------0---5p0-5-3-----|
   *   *   *   *   *   *   *   *   

  0:22                                     
                         d o-p m d
                   &=5h7p5
e|-----------------------x-x-------|
B|-----------------------x-x-------|
G|-----------------------x-x-------|
D|-------------5---------x-x-------|
A|-----7---5h7-----------x-x-------|
E|-0-----0---------&---3-x-x-3-----|
   *   *   *   *   *   *   *   *  


Verse 1:
 

  To the outside world
  Don't open my door
  To the outside world

e|---------------------------------|
B|---------------------------------|
G|---------------------------------|
D|---------------------------------|
A|-----7---7-5---------------------|
E|-0-----0---------0---5p0-5-3-----|
   *   *   *   *   *   *   *   *   

                                    X4                                       

e|---------------------------------|
B|---------------------------------|
G|---------------------------------|
D|-------------5---7---5-------5---|
A|-----7---5h7---7-------0-5h7-----|
E|-0-----0-------------------------|
   *   *   *   *   *   *   *   *  

  0:50
  I'm movin to a place
  A place where no-one knows my name
                         &=10p7
e|---------------------------------|
B|---------------------------------|
G|---------------------------------| X2
D|-------------5-------------------|
A|---------7-----------7-----------|
E|-5---5-5---------------&-5-3-----| 
   *   *   *   *   *   *   *   *  



e|---------------------------------|
B|---------------------------------|
G|---------------------------------|
D|---------------------------------|
A|-----7---7-5---------------------|
E|-0-----0---------0---5p0-5-3-----|
   *   *   *   *   *   *   *   *   

                                                                       

e|---------------------------------|
B|---------------------------------|
G|---------------------------------|
D|-------------5---7---5-------5---|
A|-----7---5h7---7-------0-5h7-----|
E|-0-----0-------------------------|
   *   *   *   *   *   *   *   *  

  1:02
  I miss you little girl
                   & = & = & = & = 7h9
e|---------------------------------|
B|---------------------------------|
G|---------------------------------|
D|-------------7-----7---7---7-----|
A|---------9-------&---&---&---&p5-|
E|-7---7-7-------------------------|
   *   *   *   *   *   *   *   *  

  1:05
  I hope you miss me just the same
                   & = & = 5h7
e|---------------------------------|
B|---------------------------------|
G|---------------------------------|
D|-------------5-----5---5---------|
A|---------7-------&---&-----------|
E|-5---5-5-----------------5-3-----|
   *   *   *   *   *   *   *   * 

  1:09

e|---------------------------------|
B|---------------------------------|
G|---------------------------------|
D|---------------------------------|
A|-----7---7-5---------------------|
E|-0-----0---------0---5p0-5-3-----|
   *   *   *   *   *   *   *   *   
                                                                      
  1:11          &=3p0
           &=3/5   &=2/4   &=4\2
e|-----0-----0---------------------|
B|-------0-&---&-----3---3---------|
G|---------------0-&-4---4-&p0-----|
D|-----------------------------2---|
A|---------------------------------|
E|-0-------------------------------|
   *   *   *   *   *   *   *   *  

  1:15

e|---------------------------------|
B|---------------------------------|
G|---------------------------------|
D|---------------------------------|
A|-----7---7-5---------------------|
E|-0-----0---------0---5p0-5-3-----|
   *   *   *   *   *   *   *   *
                     &=12
  1:18     &=pb17p12   &=pb15
       &=15b17 &=&=15b17  
e|-----&---&-----12--&-12----------|
B|-------------&-&-----&-----------|
G|-------------------------12------|
D|---------------------------------|
A|---------------------------------|
E|-0-------------------------------|
   *   *   *   *   *   *   *   *  


Verse 2:


  1:21

(Identical to Verse 1 instrumentally)

Don't open my door
To your outside world
Don't open my door
The cold outside world
I'm movin to a place
250 miles away
I miss you little girl
I hope you miss me just the same
Just the same



Solo 1 (Guitar 1 plays through):


  2:10   &=12
   &=12b14
e|---12----------------------------|
B|-12----&-15----------------------|
G|-&-------------------------------|
D|---------------------------------|
A|---------------------------------|
E|---------------------------------|
   *   *   *   *   *   *   *   *  


                                 &=12b14r12
e|---------------------------------|
B|-------------&---15------&-12----|
G|-------------------------------&-|
D|---------------------------------|
A|---------------------------------|
E|---------------------------------|
   *   *   *   *   *   *   *   *  

         & = 14
       & = & = 12
e|---------------------------------|
B|---------------------------------|
G|p0---&-&-&-----------------------|
D|---14------------14--------------|
A|---------------------------------|
E|---------------------------------|
   *   *   *   *   *   *   *   *  



e|---------------------------------|
B|---------------------------------|
G|---------------------------------|
D|-12h14t--------------------------|
A|---------------------------------|
E|---------------------------------|
   *   *   *   *   *   *   *   * 

  2:22   &=12
   &=12b14
e|---12----------------------------|
B|-12----&-15----------------------|
G|-&-------------------------------|
D|---------------------------------|
A|---------------------------------|
E|---------------------------------|
   *   *   *   *   *   *   *   *  

               &=12b14 & = 15p12
                 & = & = 12 (16th note)
e|---------------&-----------------|
B|-------------12----&-&-----------|
G|-------------&-------------------|
D|---------------------------------|
A|---------------------------------|
E|---------------------------------|
   *   *   *   *   !   *   *   *
               &=14    
             &=12
   &=12b14 & = 15p12
     & = & = 12 (16th note)
e|---&-----------------------------|
B|-12----&-&---&-------------------|
G|-&---------&-----12--------------|
D|---------------------------------|
A|---------------------------------|
E|---------------------------------|
   *   !   *   *   *   *   *   *   

                   &=& = &=15
                 &=14/16   &=16
e|---------------------------------|
B|-----------------&-&---&---------|
G|---------------&---------&-------|
D|---------------------------------|
A|---------------------------------|
E|---------------------------------|
   *   *   *   *   *   *   *   * 

  2:34
                 & = 14/16
e|-----------------15--------------|
B|-------------------17------------|
G|--------------g&-----------------|
D|---------------------------------|
A|---------------------------------|
E|---------------------------------|
   *   *   *   *   *   *   *   * 


                 &   =   &   =   & = 14/16
e|-----------------15------15------|
B|-------------------17------17----|
G|---------------&-------&-------&-|
D|---------------------------------|
A|---------------------------------|
E|---------------------------------|
   *   *   *   *   *   *   *   * 


         &=14/16   &=17b21 &=17p15
e|-15------15--------------------15\0---|
B|---17------17----&-------&---16-------|
G|-------&------------------------------|
D|--------------------------------------|
A|--------------------------------------|
E|--------------------------------------|
   *   *   *   *   *   *   *   * 

                               & = 12
             & = & = 15p12 & = pb14p12
e|-----------&---------------------|
B|---------------&-----------------|
G|---------------------14--&---&-14|
D|---------------------------14----|
A|---------------------------------|
E|---------------------------------|
   *   *   *   *   *   *   *   * 

  2:47

e|---------------------------------|
B|---------------------------------|
G|-12------------------------------|
D|-------------12h14t--------------|
A|---------------------------------|
E|---------------------------------|
   *   *   *   *   *   *   *   * 
        &=14p12
     &'s=12
   &=12h14 & = & = 7\5
e|---------------------------------|
B|---------------------------------|
G|---&-----------------------------|
D|-&-&-&-12------------------------|
A|---------&-10&---------------5h7t|
E|---------------12----------------|
   *   *   *   *   *   *   *   * 



e|---------------------12\0--------|
B|---------------------12\0--------|
G|---------------------------------|
D|---------------------------------|
A|---------------------------------|
E|-----5-3-----0-------------------|
   *   *   *   *   *   *   *   * 


       & = & = & = 15b17 
e|-------12--12--------------------|
B|-----&---&---&-------------------|
G|---------------------------------|
D|---------------------------------|
A|---------------------------------|
E|---------------------------------|
   *   *   *   *   *   *   *   * 

  2:58         &=3p0
           &=3/5   &=2h4   &=4p2
e|-----0-----0---------------------|
B|-------0-&---&-------------------|
G|---------------0-&-0-4---&p0-----| Guitar 1 variation
D|-----------------------------2---|
A|---------------------------------|
E|-0-------------------------------|
   *   *   *   *   *   *   *   *  


Solo 2 (w/split beat):
Just keep counting the *'s with your feet

  3:13
   &=12b14
e|---------12------------------------------------------------------------------|
B|-----12------12------15b~17~r15b~17--pb15----12--15b17---15b17---15b17-------|
G|-&---------------------------------------------------------------------------|
D|-----------------------------------------------------------------------------|
A|-----------------------------------------------------------------------------|
E|-----------------------------------------------------------------------------|
   *   ^   ^   *   ^   ^   *   ^   ^   *   ^   ^   *   ^   ^   *   ^   ^    


   &=pb15                  &=16\14
e|-----------------------------------------------------------------------------|
B|-&~p~12------12------12------------------------------------------------------|
G|---------14------14------&~~p12------12--------------------------------------|
D|---------------------------------14------------------------------------------|
A|-----------------------------------------------------------------------------|
E|-----------------------------------------------------------------------------|
   *   ^   ^   *   ^   ^   *   ^   ^   *   ^   ^   *   ^   ^   *   ^   ^ 

  3:18
                                                   &     =     &     =
e|---------------------------------------------------------12----------12------|
B|-------------12--------------------------------------12----------12----------|
G|-14p~12------12------14--12----------12------12--&-----------&---------------|
D|---------14------------------------------------------------------------------|
A|-----------------------------------------------------------------------------|
E|-----------------------------------------------------------------------------|
   *   ^   ^   *   ^   ^   *   ^   ^   *   ^   ^   *   ^   ^   *   ^   ^      



  =&     =     &=14b16     &=15b17                 &=pb15  &   =   &=15b17
e|---------12----------12--&---b---b---b---b---b---&~~p12------12------12------|
B|-----12----------12--------------------------------------&-------&-----------|
G|-&-----------&---------------------------------------------------------------|
D|-----------------------------------------------------------------------------|
A|-----------------------------------------------------------------------------|
E|-----------------------------------------------------------------------------|
   *   ^   ^   *   ^   ^   *   ^   ^   *   ^   ^   *   ^   ^   *   ^   ^    

  3:23

e|-----------------------------------------------------------------------------|
B|-15b17-------------------------------------------17b19-----------------------|
G|-----------------------------------------------------------------------------|
D|-----------------------------------------------------------------------------|
A|-----------------------------------------------------------------------------|
E|-----------------------------------------------------------------------------|
   *   ^   ^   *   ^   ^   *   ^   ^   *   ^   ^   *   ^   ^   *   ^   ^    


                           &=pb15
e|-----------------------------------------------------------------------------|
B|-15------12------15------&~~p12----------------------------------------------|
G|---------------------------------14--12--------------------------------------|
D|-----------------------------------------------------------------------------|
A|-----------------------------------------------------------------------------|
E|-----------------------------------------------------------------------------|
   *   ^   ^   *   ^   ^   *   ^   ^   *   ^   ^   *   ^   ^   *   ^   ^    

  3:28

e|-----------------------------------------------------------------------------|
B|-----------------------------------------------------------------------------|
G|-----------------------------------------------------------------------------|
D|-----------------------------------------------------------------------------|
A|---------------------------------------------------------5---7---7---7-------|
E|-------------------------------------------------5~/~7-----------------------|
   *   ^   ^   *   ^   ^   *   ^   ^   *   ^   ^   *   ^   ^   *   ^   ^    



e|-----------------------------------------------------------------------------|
B|-----------------------------------------------------------------------------|
G|-----------------------------------------------------------------------------|
D|-5---------------------------------------------------------------------------|
A|---------7---------------7~p~5-----------------------------------------------|
E|---------------------------------7---5~\~3---0---3-------0-------------------|
   *   ^   ^   *   ^   ^   *   ^   ^   *   ^   ^   *   ^   ^   *   ^   ^    
 
  3:33

e|-----------------------------------------------------------------------------|
B|-----------------------------------------------------------------------------|
G|-----------------------------------------------------------------------------|
D|-------------------------7-------5-------------------------------------------|
A|---------5---7---7---7---------------------------7~p~5-------5-------7-------|
E|-5~/~7---------------------------------------------------7-------------------|
   *   ^   ^   *   ^   ^   *   ^   ^   *   ^   ^   *   ^   ^   *   ^   ^    



e|-----------------------------------------------------------------------------|
B|-----------------------------------------------------------------------------|
G|-------------------------------------------------7~p~4-----------------------|
D|---------------------------------5---7~p~5---5-----------7---5h7p5-----------|
A|-7-----------------------5~/~7---------------------------------------7-------|
E|-----------------------------------------------------------------------------|
   *   ^   ^   *   ^   ^   *   ^   ^   *   ^   ^   *   ^   ^   *   ^   ^    

  3:37

e|-----------------------------------------------------------------------------|
B|-----------------------------------------------------------------------------|
G|-----------------------------------------------------------------------------|
D|---------------------------------------------------------------------5-------|
A|-5h7p5-------------------------------------------5---5---5---7~p~5-----------|
E|---------5/7-7\5-----0---3-------0-----------5/7-----------------------------|
   *   ^   ^   *   ^   ^   *   ^   ^   *   ^   ^   *   ^   ^   *   ^   ^    


                           & = 10b12r10
e|-----------------------------------------------------------------------------|
B|---------------------10--&~~~~p8-----8---------------------------------------|
G|---------7---9~p~7---------------9-----------9-------------------------------|
D|-7~/~9-----------------------------------------------------------------------|
A|-----------------------------------------------------------------------------|
E|-----------------------------------------------------------------------------|
   *   ^   ^   *   ^   ^   *   ^   ^   *   ^   ^   *   ^   ^   *   ^   ^    

  3:41

e|---------12----------12----------------------12----------12----------12------|
B|-----12----------12--------------12------12----------12----------12----------|
G|-&-----------&---------------&-------&-----------&-----------&---------------|
D|-----------------------------------------------------------------------------|
A|-----------------------------------------------------------------------------|
E|-----------------------------------------------------------------------------|
   *   ^   ^   *   ^   ^   *   ^   ^   *   ^   ^   *   ^   ^   *   ^   ^    


                                                   17to15to12
e|---------12----------12--------------------------------------15b17---15------|
B|-----12------------------15b17---15b17-----------pb15~~~p12------------------|
G|-&-----------&---------------------------------------------------------------|
D|-----------------------------------------------------------------------------|
A|-----------------------------------------------------------------------------|
E|-----------------------------------------------------------------------------|
   *   ^   ^   *   ^   ^   *   ^   ^   *   ^   ^   *   ^   ^   *   ^   ^  

  3:46
                                                           &   =   &=15b17
e|-------------15p~12------12------12----------12--15p~12--12--12------12------|
B|---------------------15----------15b17-------------------&-------&-----------|
G|-----------------------------------------------------------------------------|
D|-----------------------------------------------------------------------------|
A|-----------------------------------------------------------------------------|
E|-----------------------------------------------------------------------------|
   *   ^   ^   *   ^   ^   *   ^   ^   *   ^   ^   *   ^   ^   *   ^   ^    


           &   =   &=15b17                         &=pb14
e|-15p~12--12--12--12--12------------------------------------------------------|
B|---------&-------&-------15--12------12------12------------------------------|
G|---------------------------------14------14------&~~p12------12------14------|
D|---------------------------------------------------------14------------------|
A|-----------------------------------------------------------------------------|
E|-----------------------------------------------------------------------------|
   *   ^   ^   *   ^   ^   *   ^   ^   *   ^   ^   *   ^   ^   *   ^   ^    

  3:51

e|-----------------------------------------------------------------------------|
B|-----------------------------------------------------------------------------|
G|-12--------------------------------------------------------------------------|
D|-----------------------------------------------------------------------------|
A|-----------------------------------------------------------------------------|
E|-----------------------------------------------------------------------------|
   *   ^   ^   *   ^   ^   *   ^   ^   *   ^   ^   *   ^   ^   *   ^   ^    



e|-----------------------------------------------------------------------------|
B|-------------14p~12----------------------------------------------------------|
G|-------------14p~12------12--------------------------------------14/~16------|
D|---------------------14----------14------------------------------------------|
A|-----------------------------------------------------------------------------|
E|-----------------------------------------------------------------------------|
   *   ^   ^   *   ^   ^   *   ^   ^   *   ^   ^   *   ^   ^   *   ^   ^    

  3:56

e|-------------------------------------15----------19p~15------19p~15----------|
B|-15------17------17------17------------------17----------17----------17------|
G|-----------------------------------------------------------------------------|
D|-----------------------------------------------------------------------------|
A|-----------------------------------------------------------------------------|
E|-----------------------------------------------------------------------------|
   *   ^   ^   *   ^   ^   *   ^   ^   *   ^   ^   *   ^   ^   *   ^   ^    
 


e|-19p~15------19p~15------19p~15------19p~15------19p~15------19p~15----------|
B|---------17----------17----------17----------17----------17----------17------|
G|-----------------------------------------------------------------------------|
D|-----------------------------------------------------------------------------|
A|-----------------------------------------------------------------------------|
E|-----------------------------------------------------------------------------|
   *   ^   ^   *   ^   ^   *   ^   ^   *   ^   ^   *   ^   ^   *   ^   ^    

  4:00                                                   &=15
           &=19b21                                 &=17b19
e|---------&---------------19------18------17------&~~~~p&-----15--------------|
B|---------------------------------------------------------17----------17------|
G|-----------------------------------------------------------------------------|
D|-----------------------------------------------------------------------------|
A|-----------------------------------------------------------------------------|
E|-----------------------------------------------------------------------------|
   *   ^   ^   *   ^   ^   *   ^   ^   *   ^   ^   *   ^   ^   *   ^   ^    



e|-------------------------------------------------------------15--16--17------|
B|---------17--17------17--15--16--17--15--16--17--15--16--17------------------|
G|-----------------------------------------------------------------------------|
D|-----------------------------------------------------------------------------|
A|-----------------------------------------------------------------------------|
E|-----------------------------------------------------------------------------|
   *   ^   ^   *   ^   ^   *   ^   ^   *   ^   ^   *   ^   ^   *   ^   ^    

  4:05                                   &=15
                           &   =   &=17b19
e|-------------15--16--17--&-------&~~~~p&-----15------------------------------|
B|-15--16--17------------------------------17------17----------17--15h~17------|
G|-----------------------------------------------------------------------------|
D|-----------------------------------------------------------------------------|
A|-----------------------------------------------------------------------------|
E|-----------------------------------------------------------------------------|
   *   ^   ^   *   ^   ^   *   ^   ^   *   ^   ^   *   ^   ^   *   ^   ^    



e|-----------------------------------------------------------------------------|
B|-19b21---19b21---19b21---19b21-------------------------------17--------------|
G|-----------------------------------------------------------------19p~16------|
D|-----------------------------------------------------------------------------|
A|-----------------------------------------------------------------------------|
E|-----------------------------------------------------------------------------|
   *   ^   ^   *   ^   ^   *   ^   ^   *   ^   ^   *   ^   ^   *   ^   ^

  4:10
       & = 17p15
e|-15----------15----------15----------15----------15----------15--------------|
B|-----&------------&----------&-----------&-----------&-----------&-----------|
G|---------16----------16----------16----------16----------16----------16------|
D|-----------------------------------------------------------------------------|
A|-----------------------------------------------------------------------------|
E|-----------------------------------------------------------------------------|
   *   ^   ^   *   ^   ^   *   ^   ^   *   ^   ^   *   ^   ^   *   ^   ^   



e|-15--------------------------------------------------------------------------|
B|-----&-----------------------------------------------------------------------|
G|---------16--16\0--------12--------------------------------------------------|
D|-----------------------------------------------------------------------------|
A|-----------------------------------------------------------------------------|
E|-----------------------------------------------------------------------------|
   *   ^   ^   *   ^   ^   *   ^   ^   *   ^   ^   *   ^   ^   *   ^   ^   

  4:15
                                       & = 14p12
e|-----------------------------------------------------------------------------|
B|-----------------------------------------------------------------------------|
G|-------------------------------------&---------------------------------------|
D|-----------------------------------------14----------------------------------|
A|-----------------------------------------------------------------------------|
E|-----------------------------------------------------------------------------|
   *   ^   ^   *   ^   ^   *   ^   ^   *   ^   ^   *   ^   ^   *   ^   ^   



e|-----------------------------------------------------------------------------|
B|-----------------------------------------------------------------------------|
G|-----------------------------------------------------------------------------|
D|-----------------------------------------------------------------------------|
A|-----------------------------------------------------------------------------|
E|-----------------------------------------------------------------------------|
   *   ^   ^   *   ^   ^   *   ^   ^   *   ^   ^   *   ^   ^   *   ^   ^

  4:19

e|-----------------------------------------------------------------------------|
B|-----------------------------------------------------------------------------|
G|-----------------------------------------------------------------------------|
D|-------------5---------------------------------------------------------------|
A|-----5---7-------------------------------------------------------------------|
E|-5/7-------------------------------------------------------------------------|
   *   ^   ^   *   ^   ^   *   ^   ^   *   ^   ^   *   ^   ^   *   ^   ^



e|-----------------------------------------------------------------------------|
B|-----------------------------------------------------------------------------|
G|-----------------------------------------------------------------------------|
D|-----------------------------------------------------------------------------|
A|-----------------------------------------------------------------------------|
E|-----------------------------------------------------------------------------|
   *   ^   ^   *   ^   ^   *   ^   ^   *   ^   ^   *   ^   ^   *   ^   ^   
comments
We did not receive enough feedback on this tab! Please rate:
print report bad tab
1 2 3 4 5
2 comments total.
0 reply
yogosan wrote on June 25 2014, 09:43 pm

Parker Griggs shreds!

0 reply
coman91 wrote on June 25 2014, 10:01 pm

so much and so fast that I couldn't help but make this tablature ridiculously long and hard to understand.

I'm just glad you could read it and found it helpful! Thanks for the feedback!

I want to post or [tab]
guest
You may want to rate the tab now too:
select rating
Please do not post tabs as comments. Select "correction" instead!