Oops, an error
Loading. Please wait.

15 Step Tab

ver5
ver5

Whole song

Interactive

More versions @911Tabs.com
30,046 views 30 this week
1 commentread comment
1 2 3 4 5
accurate
x 5
Autoscroll
+/-
esc
set tempo
stop
Hey! There's an official Ultimate Guitar app which is ideal
for learning songs when you're away from computer. Get the app
WARNING: You are trying to view
                                    content from Ultimate-Guitar.com
                                    in an unauthorized application,
                                    which is prohibited.

                                    Please use an official Ultimate
                                    Guitar Tabs application for iPhone,
                                    iPad or Android to access legitimate
                                    chords, guitar, bass, and drum tabs
                                    from Ultimate-Guitar.com database.

                                    Type "ultimate guitar tabs" in Apple
                                    App Store's or Android Market's
                                    search to find the application.
--------------------------------------------------------------------------------------|
15 Step - Radiohead?------------------------------------------------------------------|
Tabbed by:?Email:
Tuning: Standard/ 5/4 timing       //////=slide, important the p means pull off.
e|------------------------------------------4-----------4----------|
B|-------4--------2-----4///////6-----------6-----------4----------|
G|-------4--------4-----4///////6----------------------------------|
D|-----------------------------------------------------------------|
A|------------------------------------4----------4-----------------|
E|-4----------4----------------------------------------------------|

e|-------6----------6------------------4-----------4---------------|
B|-------7----------6-----8//////------6-----------4---6---6////---|
G|---------------------------------------------------------6////---|
D|-----------------------------------------------------------------|
A|-6-----------6-------------------4-----------4-------------------|
E|-----------------------------------------------------------------|Repeat until
  You used to be all right

e|--------------------------------------4----------4---------------|
B|------4-------------4/////6-----------6----------4---------------|
G|------4---------6---4/////6--------------------------------------|
D|-----------------------------------------------------------------|
A|--------------------------------4-----------4--------------------|
E|-4---------4-----------------------------------------------------|


e|------6----------6-------------------4----------4///////---------|
B|------7----------6-------------------6----------4///////---------|
G|----------------------8/////-------------------------------------|
D|-----------------------------------------------------------------|
A|-6----------6------------------4-----------4---------------------|
E|-----------------------------------------------------------------|

e|----------------------------------------4--------------------------|
B|------4---------2h--4-----6---7---------6--------4h---6------------|
G|------4----------------4--6------------------6---------------------|
D|-------------------------------------------------------------------|
A|-----------------------------------4-------------------------------|
E|-4---------4-------------------------------------------------------|

e|-------4---------6-----------------4----------4------------------|
B|-------6---------6-----------------6----------4------------------|
G|-----------------------8////----------------------5///4----------|
D|-----------------------------------------------------------------|
A|-6----------6-----------------4----------4-----------------------|
E|-----------------------------------------------------------------|

e|-----------------------------------------4---------4---------------|
B|------4--------2////4---4////6-----------6---------4---------------|
G|------4--------4--------4////6-------------------------6////8------|
D|-------------------------------------------------------------------|
A|------------------------------------4---------4--------------------|
E|-4---------4-------------------------------------------------------|

-
|e|-----------------------------------------------------------------|
B|------------------------------------------------------------------|
G|------------------------------------------------------------------|
D|------------------------------------------------------------------|
A|------------------------------------------------------------------|
E|------------------------------------------------------------------|

e|------6---------6-----------------4----------------------------------|
B|------7---------6-----------------6-----4----------------------------|
G|--------------------8-------------6-----6----------------------------|
D|---------------------------------------------------------------------|
A|-6---------6----------------4-----------------4----------------------|
E|---------------------------------------------------------------------|
  This is the bass arranged for guitar for this upcoming section
e|----------------------------------------------------------------------------|
B|----------------------------------------------------------------------------|
G|----------------------------------------------------------------------------|
D|----------------------------------------------------------------------------|
A|-2-------------------------------4------------------------------------------|
E|-------4-----4----1h---2----4---------4-----4---1h--2----4------------------|

e|-----------------------------------------------------------------------------|
B|-----------------------------------------------------------------------------|
G|-----------------------------------------------------------------------------|
D|-----------------------------------------------------------------------------|
A|-6-----------------------------4---------------------------------------------|
E|-------4-----4---1h---2----4--------4-----4----1h---2----4-------------------|


 One____________________________       By_______________________
e|--------7------4-------------------------9--------6----7---------|
B|-4-------------------------4////6--------6----------------6------|
G|---------------6p------4---4////6------------6----8--------------|
D|-----------------------------------------------------------------|
A|-----------------------------------------------------------------|
E|-----------------------------------------------------------------|

  One_________________________________________
e|-----------11---------7---------------------------9-------6------|
B|-7---------11------7--6--------4----------6-----------6----------|
G|---------------------------4-------4-----------------------------|
D|-----------------------------------------------------------------|
A|-----------------------------------------------------------------|
E|-----------------------------------------------------------------|

e|------------------------7---------4------------------------------|
B|-----4---------------------------------------4-------------------|
G|-4-------4---------8----------8---------4---------4--------------|
D|-----------------------------------------------------------------|
A|-----------------------------------------------------------------|
E|-----------------------------------------------------------------|

e|------4---------6p----4--------------------------6------------------|
B|------6---------4--------------------------------7--------6---------|
G|-6--------6-----6-------6p-----4---------4------------4-------------|
D|--------------------------------------------------------------------|
A|--------------------------------------------------------------------|
E|--------------------------------------------------------------------|

e|--------------------4---------------------------------------------|
B|----4---------------6---------4-----------------------------------|
G|-4-----4----------------------4-----------------------------------|
D|----------------6--------6---------6//////9-----------------------|
A|------------------------------------------------------------------|
E|------------------------------------------------------------------|

e|--------7---------4----------------------------------------------|
B|-4-----------4---------------4////6------------------------------|
G|------------------6p----4----4////6------------------------------|
D|-----------------------------------------------------------------|
A|-----------------------------------------------------------------|
E|-----------------------------------------------------------------|

e|--------9-------6----4----6-----------------11---------7---------|
B|--------6-------6----4----6----------7------11------7--6---------|
G|-6------------- 6p----4---6p---4---------------------------------|
D|-----------------------------------------------------------------|
A|-----------------------------------------------------------------|
E|-----------------------------------------------------------------|

e|-------------------------9-------6-------------------------------|
B|-----4-----------6-----------6-------4----6----------------------|
G|-4--------4--------------------------4----6---4------------------|
D|-----------------------------------------------------------------|
A|-----------------------------------------------------------------|
E|-----------------------------------------------------------------|

e|--------7---------4------------------------4---------------------|
B|-4----------4--------------4---------------6---------------------|
G|------------------6----4---4////6----6-----------6---------------|
D|-----------------------------------------------------------------|
A|-----------------------------------------------------------------|
E|-----------------------------------------------------------------|

e|-6p-----4------------------------6---------6---------------------|
B|-4-------------------------------7---------6----4----------------|
G|-6---------6p----4--------4-----------4-------------6------------|
D|-----------------------------------------------------------------|
A|-----------------------------------------------------------------|
E|-----------------------------------------------------------------|

e|------4--------4-------------------------------------------------|
B|------6--------4-------------------------------------------------|
G|-6--------6----4------6------------------------------------------|
D|-----------------------------------------------------------------|
A|-----------------------------------------------------------------|
E|-----------------------------------------------------------------|

e|------------------4-----------------------------------------------|
B|-5-------------------------5--------------------------------------|
G|-------6--------------------------6-------------------------------|
D|-------------6--------------------------6-------------------------|
A|----------------------------------------------4-------------------|
E|------------------------------------------------------------------|

e|------------------3-----------------------------------------------|
B|-4-------------------------4--------------------------------------|
G|-------5------------------------5---------------------------------|
D|-------------5-----------------------5----------------------------|
A|-3-------------------------3--------------3-----------------------|
E|------------------------------------------------------------------|

e|----------------------------------------------------------------------|
B|------4--------2------------------------------------------------------|
G|------4------------4p--3---------------3---------4---3----------------|
D|----------------------------------------------------------------------|
A|----------------------------------------------------------------------|
E|-4---------4-----------------4----4---------4-------------------------|

e|-----------------------------------------------------------------------|
B|----------4-----------2h---4-------------------------------------------|
G|----------4--------------------4p---3-------------------3--------------|
D|-----------------------------------------------------------------------|
A|-----------------------------------------------------------------------|
E|-4----4---------4--------------------------4-----4-----------4---------|

e|-----------------------------------------------------------------|
B|----------4--------------------4----------2----------------------|
G|--4p--3------------------------4----------4----4p---3------------|
D|-----------------------------------------------------------------|
A|-----------------------------------------------------------------|
E|-----------------4------4------------4---------------------------|

e|-----------------------------------------------------------------|
B|-------4--------4------------------4----------2------------------|
G|-------3--------4---3--------------4----------4---4p--3----------|
D|-----------------------------------------------------------------|
A|-----------------------------------------------------------------|
E|-4---------4-------------4----4---------4------------------------|

e|-------------------------------------------------------------------|
B|---------------4-------------4-------------------------------------|
G|---------------3-------4-----3-------------------------------------|
D|-------------------------------------------------------------------|
A|-------------------------------------------------------------------|
E|-4------4----------------------------------------------------------|

e|---------7----------4------------------------4---------4---------|
B|-4------------4-------------4/////6----------6---------4---------|
G|--------------------6p---4—-4/////6-----6-------------------6----|
D|-----------------------------------------------------------------|
A|----------------------------------------4----------4-------------|
E|-----------------------------------------------------------------|

e|--4-------------------6--------6--------------4---------4---------|
B|--4-------------------7--------6----4---------6---------4---------|
G|------6------4-------------4-----------------------4--------------|
D|------------------------------------------6-----------------------|
A|------------------------------------------------------------------|
E|------------------------------------------------------------------|
Electric organ arranged for guitar
e|---4---------------------------14--------------------------------|
B|---4-------------14------------16--------14----------------------|
G|---4-------------13------------15--------13----------------------|
D|-----------------14------------13--------14----------------------|
A|-----------------------------------------------------------------|
E|-----------------------------------------------------------------|

|bass arranged for guitar
e|-----------------------------------------------------------------|
B|-----------------------------------------------------------------|
G|-----------------------------------------------------------------|
D|-9----------------------9---------9---------------------9--------|
A|-----11-------9h----11-----11--------11-------9h---11------11----|
E|----------11-----------------------------11----------------------|

e|-----------------------------------------------------------------|
B|-----------------------------------------------------------------|
G|-----------------------------------------------------------------|
D|-9----------------------9---------9---------------------9--------|
A|-----11-------9h----11-----11--------11-------9h---11------11----|
E|----------11-----------------------------11----------------------|

e|-----------------------------------------------------------------|
B|-----------------------------------------------------------------|
G|-----------------------------------------------------------------|
D|-9----------------------9---------9---------------------9--------|
A|-----11-------9h----11-----11--------11-------9h---11------11----|
E|----------11-----------------------------11----------------------|



e|-------------------------------------------------------------------|
B|-------------------------------------------------------------------|
G|----13--13--11--11-------------------------------------------------|
D|-13----------------13--13--11--9----------------------9------9-----|
A|------------------------------------11--11--11-----------11--------|
E|-------------------------------------------------11----------------|

e|-------------------------------------------------------------------|
B|-------------------------------------------------------------------|
G|-------------------------------------------------------------------|
D|-9--------------------9--------9---9-------------9------9----------|
A|----11--------9h--11-----11-----------11---11-------11-----11------|
E|---------11--------------------------------------------------------|

e|-------------------------------------------------------------------|
B|-------------------------------------------------------------------|
G|-------------------------------------------------------------------|
D|-9--------------------9--------9---9-------------9------9----------|
A|----11--------9h--11-----11-----------11---11-------11-----11------|
E|---------11--------------------------------------------------------|
comments
print report bad tab
1 comment total.
0 reply
awesomeperson1 wrote on February 3 2010, 06:44 pm

Great tab radiohead is the best and I luv this song thanx!!

I want to post or [tab]
guest
You may want to rate the tab now too:
select rating
Please do not post tabs as comments. Select "correction" instead!