Oops, an error
Loading. Please wait.

Ok Computer Tab

ver2
ver2

Album

More versions @911Tabs.com
46,658 views 73 this week
3 commentsread comments
1 2 3 4 5
accurate
x 15
add to favorites launch autoscroll
font size
0
reset
Autoscroll
+/-
esc
set tempo
stop
Contributor
WARNING: You are trying to view
                                    content from Ultimate-Guitar.com
                                    in an unauthorized application,
                                    which is prohibited.

                                    Please use an official Ultimate
                                    Guitar Tabs application for iPhone,
                                    iPad or Android to access legitimate
                                    chords, guitar, bass, and drum tabs
                                    from Ultimate-Guitar.com database.

                                    Type "ultimate guitar tabs" in Apple
                                    App Store's or Android Market's
                                    search to find the application.
OK COMPUTER
-----------


*This has been arranged for acoustic (rhythm) guitar and therefore is not 100% accurate.
Also there are songs on the album that require to be mostly (or completeley) plucked.  Some
tabs have been included, however most songs are not fully tabbed and are mixed with chords
(e.g. Let Down).


 1. Airbag
 2. Paranoid Android
 3. Subterranean Homesick Alien
 4. Exit Music (For A Film)
 5. Let Down
 6. Karma Police
 7. Fitter Happier (Vocal)
 8. Electioneering
 9. Climbing Up The Walls
10. No Surprises
11. Lucky
12. The Tourist



==============================================================================================


1. AIRBAG
---------


A9 (x07600)
A9sus4 (x07800)
Dm9 (x07700)
Dm9/6 (x00700)
B7sus4 (x21200)
F#m(11) (x44200)
Esus4 (022200)
E (022100)
A (x02220)
Dm9/A (x03230)

                                                                                      (A9)
INTRO:        e|---------------------------------------------------------------------|-0--|
              B|---------------------------------------------------------------------|-0--|
              G|---------------------------------------------------------------------|-6--|
              D|---------------------------------------------------------------------|-7--|
              A|---------------------------------------------------------------------|-0--|
              E|-0--1--8--7--9--5--0--1--8--7--5--9--12--13--8--7--9--5--0--1--8--7--|-x--|

              |(A9)      | A9       |(A9)      |


                    (A9)        A9sus4  Dm6                   Dm9/6        A9
VERSE 1:      In the next world war,  a jack-knifed juggernaut, I am born again
                          A9sus4  Dm6                  Dm9/6        A9
              In the neon sign,   scrolling up and down, I am born again


                    B7sus4        F#m(11)       Esus4             E  (A)
CHORUS 1:     In an interstella burst____, i'm back to save the u-universe


LINK:         |(A)       | A        | Dm9/A    | A        | Dm9/A    |

              | Dm9/A    | A        | Dm9/A    | A9       |


                   A9         A9sus4   Dm6            Dm9/6        A9    Dm9/6
VERSE 2:      In a deep, deep sleep    of the innocent, I am born again
                   A9          A9sus4    Dm6               Dm9/6                  A9              
              In a fast german car, i'm amazed that i survived, an airbag saved my life


                    B7sus4        F#m(11)       Esus4             E  (A)
CHORUS 2:     In an interstella burst____, i'm back to save the u-universe


SOLO:         |(A)       | A        | A9       | A9sus4   | Dm6      | Dm6/9    |
              
              | A9       | Dm6/9    | A9       | A9sus4   | Dm6      | Dm6/9    |
              
              | A9       | A9       |


                    B7sus4        F#m(11)       Esus4             E   A
CHORUS 3:     In an interstella burst____, i'm back to save the u-universe
                    B7sus4        F#m(11)       Esus4             E  (A)
              In an interstella burst____, i'm back to save the u-universe


OUTRO:        |(A)       | A        | A        | A        |

              | A        | A        | A        | A        |

              | Dm9/A    | A        | Dm9/A    | A        |

              | Dm9/A    | A        | Dm9/A    | A        |

              | Dm9/A    | A        | Dm9/A    | A        |

              | Dm9/A    | A        | Dm9/A    | A9       |


==============================================================================================


2. PARANOID ANDROID
-------------------

F (133211)
Cm (x35543)
G/B (x2003x)
G/Bb (x10030)
A (x02220)
Dm (xx0231
Dm/C (x2x231)
Bb (x1333x)
Am (x02210)
Gm (x55333)
F* (x33211)
E (022100)


*THIS IS BASED ON RHYTHM ONLY. THERE ARE OTHER GUITARS WHICH HAVE NOT BEEN TABBED HERE!



INTRO:        e|-----------------------------------------------------|
              B|------8-----------8-----------8----------------------|
              G|--------8-----------8-----------8--------------------|
              D|-----------------------------------------------------|
              A|----------0---0-------0--8--8-----8--0--0--0---------|
              E|-8--8-------6---6----------------------------6--6--6-|

              e|-----------------------------------------------------|
              B|------3---------------3------------3---3---3---------|
              G|--------3--0--2--0--2---3--0--3--3---3---2---0--0----|
              D|-----------------------------------------------------|
              A|-----------------------------------------------------|
              E|-3--3------------------------------------------------|

              e|-----------------------------------------------------|
              B|------3---------------3------------3---3---3---------|
              G|--------3--0--2--0--2---3--0--3--3---3---2---0--0-(7)|
              D|-----------------------------------------------------|
              A|-----------------------------------------------------|
              E|-3--3------------------------------------------------|


VERSE 1:      e|-----------------------------------------------------|
              B|-----8-----------8-----------8-----------------------|
              G|-8-----8-----------8-----------8---------------------|
              D|-----------------------------------------------------|
              A|---------0---0-------0--8--8-----8--0--0--0----------|
              E|---8-------6---6----------------------------6--6--6--|

               Please could you stop the noise i'm

              e|-----------------------------------------------------|
              B|------3---------------3------------3---3---3---------|
              G|--------3--0--2--0--2---3--0--3--3---3---2---0--0----|
              D|-----------------------------------------------------|
              A|-----------------------------------------------------|
              E|-3--3------------------------------------------------|

               Trying to get some rest

              e|-----------------------------------------------------|
              B|------3---------------3------------3---3---3---------|
              G|--------3--0--2--0--2---3--0--3--3---3---2---0--0-(7)|
              D|-----------------------------------------------------|
              A|-----------------------------------------------------|
              E|-3--3------------------------------------------------|

              e|-----------------------------------------------------|
              B|-----8-----------8-----------8-----------------------|
              G|-8-----8-----------8-----------8---------------------|
              D|-----------------------------------------------------|
              A|---------0---0-------0--8--8-----8--0--0--0----------|
              E|---8-------6---6----------------------------6--6--6--|

               From all the unborn chicken

              e|-----------------------------------------------------|
              B|------3---------------3------------3---3---3---------|
              G|--------3--0--2--0--2---3--0--3--3---3---2---0--0----|
              D|-----------------------------------------------------|
              A|-----------------------------------------------------|
              E|-3--3------------------------------------------------|

               Voices in my head

              
CHORUS 1:     e|-----0-------0----------0-------0--------------------|
              B|---3---3---3---3------3---3---3---3------------------|
              G|-3-------3-------3--2-------2-------2----------------|
              D|-----------------------------------------------------|
              A|-----------------------------------------------------|
              E|-----------------------------------------------------|

               What's this(____)

              e|-----0-------0----------0-------0--------------------|
              B|---3---3---3---3------3---3---3---3------------------|
              G|-1-------1-------1--3-------3-------3----------------|
              D|-----------------------------------------------------|
              A|-----------------------------------------------------|
              E|-----------------------------------------------------|

               (____), what's this(____)

              e|-----0-------0----------0-------0--------------------|
              B|---3---3---3---3------3---3---3---3------------------|
              G|-2-------2-------2--1-------1-------1----------------|
              D|-----------------------------------------------------|
              A|-----------------------------------------------------|
              E|-----------------------------------------------------|

               (____)
                
              e|-----0-------0---------------------------------------|
              B|---3---3---3---3-------------------------------------|
              G|-1-------1-------1-----------------------------------|
              D|-----------------------------------------------------|
              A|-----------------------------------------------------|
              E|-----------------------------------------------------|


VERSE 2:      AS VERSE 1:

              When i am king i will be first against the wall
              With your opinion which is of no consequence at all


CHORUS 2:     AS CHORUS 1



SOLO:         e|-----------------------------------------------------------|
              B|-----------------------------------------------------------|
              G|-----------------------------------------------------------|
              D|-----------------0---------0-----------------0------3------|
              A|-0--0--0--3--0-----3--0--3---0--0--0--3--0-----3--0---3--0-|
              E|---------------4---------------------------4---------------|

              e|-----------------------------------------------------------|
              B|-----------------------------------------------------------|
              G|-----------------------------------------------------------|
              D|-----------------0---------0-----------------0------3------|
              A|-0--0--0--3--0-----3--0--3---0--0--0--3--0-----3--0---3--0-|
              E|---------------4---------------------------4---------------|

              e|-----------------------------------------------------------|
              B|-----------------------------------------------------------|
              G|-----------------------------------------------------------|
              D|---------3------3------3---------3------3------3-----------|
              A|-3--3--3---3--2---2--0---3--3--3---3--2---2--0-------------|
              E|-----------------------------------------------------------|

                                                                             (F)
              e|-----------------------------------------------------------|-*1--|
              B|-----------------------------------------------------------|--1--|
              G|-----------------------------------------------------------|--2--|
              D|---------3------3------3---------3-------------------------|--3--|
              A|-3--3--3---3--2---2--0---3--3--3---3--3--0--3--2--1--0-----|--3--|
              E|-----------------------------------------------------------|--1--|

              
BRIDGE:       REPEAT SOLO (x2): *END OF 2ND REPEAT ONLY 

              You don't remember, you don't remember, why don't you remember my name?
              Off with his head man, off with his head man
              Why don't you remember my name?  I guess he does____


SOLO 2:       | Cm     | G/B    | G/Bb   | A      | Dm     | A      | Dm     | Dm/C   |
                ah       ah       ah       ah       ah       ah       ah       ah
              | Bb     | Am     | Gm     | F*     | E      | E      | A      | A      |
                ah       ah       ah       ah       ah       ah       ah       ah


              Cm   G/B  G/Bb  A             Dm   A      Dm  Dm/C
MIDDLE:       Rain down, rain down, come on rain down on me
              Bb      Am          Gm       F*    E       A
               From a great height, from a great height, height

              Cm   G/B  G/Bb  A             Dm   A      Dm  Dm/C
              Rain down, rain down, come on rain down on me
              Bb      Am          Gm       F*    E       A
               From a great height, from a great height, height

              Cm              G/B            G/Bb           A             
              Rain            down            rain         down, come on
              (what's this sir, you're leaving, the crackle of pig skin)
              Dm          A               Dm         Dm/C
              Rain        down          on me
              (the dust and the screaming, the yuppies networking
              Bb       Am          Gm        F*    
               From a  great height, from a great
              (the panic, the vomit, the panic, the vomit)
              E
              Height                  height                  (OUTRO)
              (God loves his children, god loves his children, yeah)


OUTRO:        e|-----------------------------------------------------------|
              B|-----------------------------------------------------------|
              G|-----------------------------------------------------------|
              D|-----------------0---------0-----------------0------3------|
              A|-0--0--0--3--0-----3--0--3---0--0--0--3--0-----3--0---3--0-|
              E|---------------4---------------------------4---------------|

              e|-----------------------------------------------------------|
              B|-----------------------------------------------------------|
              G|-----------------------------------------------------------|
              D|-----------------0---------0-----------------0------3------|
              A|-0--0--0--3--0-----3--0--3---0--0--0--3--0-----3--0---3--0-|
              E|---------------4---------------------------4---------------|

              e|-----------------------------------------------------------|
              B|-----------------------------------------------------------|
              G|-----------------------------------------------------------|
              D|---------3------3------3---------3------3------3-----------|
              A|-3--3--3---3--2---2--0---3--3--3---3--2---2--0-------------|
              E|-----------------------------------------------------------|

              e|-----------------------------------------------------------|
              B|-----------------------------------------------------------|
              G|-----------------------------------------------------------|
              D|---------3------3------3---------3-------------------------|
              A|-3--3--3---3--2---2--0---3--3--3---3--3--0--3--2--1--0-----|
              E|-----------------------------------------------------------|

              REPEAT OUTRO

              
==============================================================================================


3. SUBTERRANEAN HOMESICK ALIEN
------------------------------


F (x33211)
C (x32010)
Csus2 (x3003x)
Cadd9 (x3203x)
G/B (x2003x)
F/C (x3301x)
Bsus4 (x244xx)


INTRO:        | F            | C            | Cadd9        | Cadd9  Csus2 |

              | G/B          | G/B          | Cadd9  Csus2 | G/B          |

              | G/B          | G/B          | Cadd9  Csus2 | G/B          |


                  G/B                                          Cadd9                      G/B
VERSE 1:      The breath of the morning, i keep forgetting the smell of the warm summer air
                                                       
              I live in a town where you can't smell a thing
              Cadd9                                     (G/B)
               You watch your feet for cracks in the pave-ment


LINK 1:       | G/B          | G/B          | Cadd9  Csus2 | G/B          |


              G/B                                 Cadd9               G/B
VERSE 2:       And up above, aliens hover, making home movies for the folks back home
              
              Of all these weird creatures who lock up their spirits
                    Cadd9                                   (G/B)
              Drill holes in themselves and live for their se-crets


LINK 2:       | G/B          | G/B          | Cadd9  Csus2 | G/B          |


                         Csus2    Cadd9  G/B
CHORUS 1:     They're all uptight, uptight
              Csus2    Cadd9  G/B
               Uptight, uptight
              Csus2    Cadd9  (G/B)
               Uptight,       u-ptight

              |(G/B)         | G/B          | Cadd9  Csus2 | G/B          |

              | G/B          | G/B          | Cadd9  Csus2 | G/B          | 


              G/B
VERSE 3:       I wish that they'd swoop down in a country lane
              Cadd9                   G/B
               late at night when i'm driving
              
              Take me onboard their beautiful ship
              Cadd9                                  (G/B)
               Show me the world as i'd love to see it


LINK 4:       | G/B          | G/B          | Cadd9  Csus2 | G/B          |


                  G/B
VERSE 5:      I'd tell all my friends but they'd never believe me
                     Cadd9                  G/B
              They'd think that i'd finally lost it completely
              
              I'd show them the stars and the meaning of life
                     Csus2
              They'd shut me away
                           G/B       Cadd9   G/B            Cadd9   G/B
              But i'll be a-lright, a-lright, i'm alright, a-lright


                      Csus2    Cadd9  G/B
CHORUS 2:     I'm just uptight, uptight
              Csus2    Cadd9   G/B
               Uptight,       u-ptight
              Csus2    Cadd9  G/B
               Uptight, uptight
              Csus2    Cadd9  (G/B)
               Uptight,       u-p

              |(G/B)         | G/B          | Cadd9  Csus2 | G/B          |

              | G/B          | G/B          | Cadd9  Csus2 | G/B          |


OUTRO:        | F            | F/C          | Bsus4        |


==============================================================================================


4. EXIT MUSIC (FOR A FILM)
--------------------------

(CAPO ON 2ND)

Am (x02210)
E (022100)
C/G (3x2010)
Dsus2/F# (2x0230)
Dsus2/F (1x0230)
Asus4 (x02230)
A (x02220)
Gm(11) (3x0313)
D7/F# (2x0212)
Asus2 (x02200)
Fmaj7 (xx3210)
Esus4 (022200)
B7 (x21202)
F (x33211)
Bb (x13331)


INTRO:        | Am       |  (x6)


              Am              E         C/G            Dsus2/F#  Dsus2/F
VERSE 1:      Wake from your sleep, the drying of your tea   -   ears
                Am      E          Asus4   A
              Today we escape, we escape


              Am            E         C/G              Dsus2/F#  Dsus2/F
VERSE 2:      Pack and get dressed, before your father hears     us
                Am        E         Asus4   A
              Before all hell breaks loose


              Gm(11)        D7/F#      Asus2 Am  Asus2 Asus4 Fmaj7  Esus4
BRIDGE:       Breathe, keep breathing, don't lose      your nerve
              Gm(11)        D7/F#        Asus2    Am  Asus2 Asus4  Fmaj7   Esus4   E
              Breathe, keep breathing, I can't do this      a  -  lone


              Am         E      C/G             Dsus2/F#  Dsus2/F
VERSE 3:      Sing us a song, a song to keep us war   -   arm
              Am              E             Asus4   A
              There's such a chill, such a chill


              Am      B7      E         F
BRIDGE 2:     You can laugh a spineless laugh
                           Bb        E           
              We hope your rules and wisdom choke you


              Am         E       C/G         Dsus2/F#  Dsus2/F
VERSE 4:      Now we are one, in everlasting pea   -   eace
                 Am             E                Asus4   A
              We hope that you choke, that you  choke
                 Am             E                Asus4   A
              We hope that you choke, that you  choke
                 Am             E                Asus4   A
              We hope that you choke, that you  choke


==============================================================================================


5. LET DOWN
-----------


A (x02220)
E (022100)
F#m (244222)
D (xx0232)


INTRO:        e|---------5---------0---------4---------0-|
              B|---3---3-----3---3-----3---3-----3---3---|
              G|-6---6-----6---6-----6---6-----6---6-----|

              e|---------5---------0---------4---------0-|
              B|---3---3-----3---3-----3---3-----3---3---|
              G|-6---6-----6---6-----6---6-----6---6-----|

              e|---------5----|
              B|---3---3------|
              G|-6---6-----*6-|

              *| A      | A      | A      | A      |


              A                         E                             F#m
VERSE 1:      Transport, motorways and tram lines, starting and then stopping
                             E                        A                       E
              Taking off and landing, the emptiest of feelings, disappointed people
                             F#m                           E
              Clinging onto bottles and when it comes it's oh so disappointing


              D   A        F#m      A      D       A      F#m         A
CHORUS 1:     Let down and hanging around, Crushed like a bug in the ground
              D   A        F#m      A    E
              Let down and hanging around


LINK:         e|---------5---------0---------4---------0---|
              B|---3---3-----3---3-----3---3-----3---3-----|
              G|-6---6-----6---6-----6---6-----6---6-------|

              e|---------5---------0---------4*-|
              B|---3---3-----3---3-----3---3----|
              G|-6---6-----6---6-----6---6------|


              *A                               E
VERSE 2:       Shell smashed, juices flowing, wings twitch, legs are going
              F#m                    E                         A
              Don't get sentimental, it always ends up drivel, one day i am going to
              E                        F#m                     E
              Grow wings, a chemical reaction, hysterical and useless, hysterical and


              D   A        F#m      A      D       A      F#m         E
CHORUS 2:     Let down and hanging around, Crushed like a bug in the ground
              D   A        F#m      A    E
              Let down and hanging around


SOLO:        e|-0-------------0-------0----0---0---0---0----0---0-------0--9---0-|
             B|---7--9--10--9---10--9---10---5---7---9---10---9---10--9------9---|
             G|------------------------------------------------------------------|

             e|---0---0---0---0-------0-------12---0---0---0---0----0---0-------0--9---*0-|
             B|-5---7---9--10---10--9---10--9----9---5---7---9---10---9---10--9------9----|
             G|---------------------------------------------------------------------------|

             *| A      | A      | A      | A      | A      | A      | A      | A      |

              | A      | A      | A      | A      | A      | A      | A      | A      |
                Let down______________              let down______________
              | A      | A      | A      | A      | A      | A      | A
                Let down______________________________


              A                             E                            F#m
VERSE 3:      You know, you know where you are with, you know where you are with
                                E                          A
              Floor collapses, floating, bouncing back and one day i am going to
              E                        F#m                     E
              Grow wings, a chemical reaction, hysterical and useless, hysterical and


              D   A        F#m      A      D       A      F#m         E
CHORUS 1:     Let down and hanging around, Crushed like a bug in the ground
              D   A        F#m      A    E
              Let down and hanging around


OUTRO:        e|--------------------------------------------------------------------|
              B|-----3-----3----------3-----2----------3-----3---------3-----2------|
              G|-------2-----2----------2-----2----------2-----2---------2-----2----|
              D|---2-----------2----2-----------2-----2----------2----2----2-----2--|
              A|-0-------0--------0-------0---------0------0---------0--------------|
              E|--------------------------------------------------------------------|

              e|------------------------------------0--|
              B|-----3-----3----------3-----2-------2--|
              G|-------2-----2----------2-----2-----2--|
              D|---2-----------2----2-----------2---2--|
              A|-0-------0--------0-------0---------0--|
              E|------------------------------------x--|


==============================================================================================


6. KARMA POLICE
---------------


Am (x02210)
D7sus2/F# (2x0210)
Em (022000)
G (320033)
F (x33211)
D (xx0232)
G/F# (2x0033)
C (x32010)
C/B (x20010)
Bm (x24432)
F# (244322)
E (022100)


INTRO:        | Am         | D7sus2/F#  | Em         | G          |
              
              | Am         | F          | Em         | G          |
              
              | Am         | D          | G    G/F#  | C    C/B   |
              
              | Am         | Am         | Bm         | D          |


              Am  D7sus2/F#  Em   G           Am      F        Em    G                  Am   
VERSE 1:       Karma      police arrest this man, he talks in maths, he buzzes like a fridge
                    D      G  G/F#  C    C/B Am   Bm   D
              He's like a de-tuned ra - di - o


              Am  D7sus2/F#  Em   G           Am       F      Em      G                 Am 
VERSE 2:       Karma      police arrest this girl her hitler hairdoo is making me feel ill
                   D       G      G/F#  C   C/B  Am   Bm   D
              and we have crashed the  pa - a - rty


              C         D           G  F#   C         D           G  F#
BRIDGE 1:      This is what you'll get       this is what you'll get
              C         D           G            Bm       C   Bm   D
               This is what you'll get when you mess with us


              Am  D7sus2/F#  Em   G                 Am        F    Em
VERSE 3:       Karma      police, i've given all i can, it's not enough
              G                 Am      D          G   G/F#   C   C/B   Am   Bm   D
              I've given all i can but we're still on the    pay ro  -  oll


              C         D           G  F#   C         D           G  F#
BRIDGE 2:      This is what you'll get       this is what you'll get
              C         D           G            Bm       C   Bm   D
               This is what you'll get when you mess with us


              Bm     D       G       D      G       D      E
CHORUS 1:      For a minute there I lost myself, I lost myself
              Bm     D       G       D      G       D      E
               For a minute there I lost myself, I lost myself
              
              | Bm         | D          | G          | D          |
              
              | G          | D          | E          | E          |

               Bm   D       G       D      G       D      E
              For a minute there I lost myself, I lost myself
              Bm           D       G       D      G       D      E   
               Phew, for a minute there I lost myself, I lost myself____

              
OUTRO:        | Bm         | D          | G          | D          |
              
              | G          | D          | E          | E          |

              repeat to fade


==============================================================================================


7. FITTER HAPPIER
-----------------

(NO CHORDS)


Fitter, happier, more productive, comfortable, not drinking too much

Regular excercise at the gym, three days a week

Getting on better with your associate employee, contemporaries at ease

Eating well, no more microwave dinners and saturated fats, a patient better driver

A safer car, baby smiling in back seat, Sleeping well, no bad dreams, no paranoia

Careful to all animals, never washing spiders down the plughole

Keep in contact with old friends, enjoy a drink now and then

Will frequently check credit at moral bank, hole in wall, favours for favours

Fond but not in love, charity standing orders on sundays, ring road supermarket

No killing moths or putting boiling water on the ants, car wash, also on sundays

No longer afraid of the dark or midday shadows, at a better place

Slower and more calculated, no chance of escape, now self-employed

Concerned but powerless, an empowered and informed member of society

Pragmatism, not idealism, will not cry in public, less chance of illness

Tires that grip in the wet, Shot of baby strapped in back seat, a good memory

Still cries at a good film, still kisses with saliva

No longer empty and frantic like a cat tied to a stick

That's driven into frozen winter shit, the ability to laigh at weakness

Calm, fitter, healthier and more productive, a pig in a cage on antibiotics


==============================================================================================


8. ELECTIONEERING
-----------------

(TUNING: dBGDAE)

Dm/A (x007xx)
Dm (xx0760)
Dm4 (xx0780)
D7 (xx0530)
D (xx0230)
Dm/A* (x00760)
Dm4/A (x00780)
D7/A (x00530)
D/A (x00230)
G/D (xx0030)
Dmaug (xx0560)
Dmaug1 (xx0460)
Dmaug2 (xx0360)
D6 (xx0430)
Bbm/D (xx0330)
E7/D (xx0130)


INTRO:        | Dm9(1)                     | Dm9(1)                     |

               (Dm9)
              d|-x-|-----------------------------------------------------|
              B|-6-|---8--6---8--6---8--6---6-----8--6---8--6---8--6---6-|  (Basic Riff)
              G|-7-|-7------7------7------7-----7------7------7------7---|
              D|-0-|--------------------------0--------------------------|

              | Dm  Dm4 Dm Dm4 Dm Dm4 Dm  | Dm  Dm4 Dm Dm4 Dm Dm4 Dm  | 

              | Dm  Dm4 Dm Dm4 Dm Dm4 Dm  | Dm  Dm4 Dm Dm4 Dm Dm4 Dm  | 

              (*changes between Dm + Dm4 are quick so listen to the song for the rhythm)


              Dm  Dm4 Dm Dm4 Dm Dm4 Dm  Dm4 Dm Dm4 Dm Dm4  D9   D7      D
VESRE 1:                 I will stop           I will stop at   nothi - ing
              Dm  Dm4 Dm Dm4 Dm  Dm4    Dm Dm4 Dm Dm4 Dm Dm4 Dm  D7     D  
                         Say the right things     when election-neeri - ing
                              Dm  Dm4 Dm Dm4 Dm Dm4 Dm       Dm4 Dm Dm4 Dm Dm4 Dm
              I trust i can rely                     your vote


                   Dm/A*          Dm4/A                D7/A              D/A
CHORUS 1:     When I go forwards, you go backwards and somewhere we will meet
                   Dm/A*          Dm4/A                D7/A              D/A
              When I go forwards, you go backwards and somewhere we will meet


LINK:         | Dm  Dm4 Dm Dm4 Dm Dm4 Dm  | Dm  Dm4 Dm Dm4 Dm Dm4 Dm  | 

              | Dm  Dm4 Dm Dm4 Dm Dm4 Dm  | Dm  Dm4 Dm Dm4 Dm Dm4 Dm  |


              Dm  Dm4 Dm Dm4 Dm Dm4 Dm   Dm4 Dm Dm4 Dm  Dm4   Dm   D7        D
VERSE 2:                   Riot shields,         voodoo e  -  co - nomics, return, return
              Dm  Dm4 Dm Dm4  Dm   Dm4 Dm   Dm4 Dm Dm4 Dm Dm4 Dm    D7      D
                         It's just business        cattle prods and I - M - F
                              Dm  Dm4 Dm Dm4 Dm Dm4 Dm       Dm4 Dm Dm4 Dm Dm4 Dm
              I trust i can rely                     your vote


                   Dm/A*          Dm4/A                D7/A              D/A
CHORUS 1:     When I go forwards, you go backwards and somewhere we will meet
                   Dm/A*          Dm4/A                D7/A              D/A
              When I go forwards, you go backwards and somewhere we will meet


SOLO:         | G/D                       | G/D                       |
              
              | G/D                       | G/D                       |

              | G/D                       | G/D(1)                    |


OUTRO:        | Dm  Dmaug  Dmaug1  Dmaug2 | D7     D6     Bbm/D     D |

              | E7/D                      | E7/D                      |

              | G/D                       | G/D                       |
              
              | G/D                       | G/D                       |

              | G/D    D    E7/D    G/D   | G/D    D    E7/D    G/D   |

              | G/D    D7   D6      Bbm/D | Bbm/D  D7   D6      Bbm/D |

              | Dm                        | Dm                        |

              | Dm                        | Dm                        |

              | Dm                        | Dm(1)                     |                  



==============================================================================================


9. CLIMBING UP THE WALLS
------------------------


B (799877)
G (355433)
E (022100)


INTRO:        | B        G  | E        G  | B        G  | E        G  |
              
              | B        G  | E        G  | B        G  | E       (G) |


              (G)       B               G        E     G                B              G    E
VERSE 1:       I am the key to the lock in your house, that keeps your toys in the basement
              G          B          G     E G      B                  G    E
              But if you get to far inside, you'll only see my reflection
              G           B                   G   E   G        B             G   E
              It's always best when the light is off, I am the pick in the ice
              G          B      G        E         G          B                  G   E
              Do not cry out or hit the alarm, you know we're friends 'till we die


                                  G    E        G
CHORUS 1:     And either way you turn, i'll be there
              E             G     E        G     E                G   (E)
              Open up your skull, i'll be there, climbing up the walls


LINK 1:       |(E)          | E           | E           | E       (G) |


              (G)          B                   G     E      G      B                 G   E
VERSE 2:       It's always best when the light is off, it's always better on the outside
              G        B                 G      E   G        B                G   E
               Fifteen blows to the back of my head, fifteen blows to your mind
              G           B            G  E     G        B              G    E
              So lock the kids up safe tonight, shut the eyes in the cupboard
              G            B              G    E   G               B            G   E              
              I've got the smile of a healthy man, you've got the loneliest feeling


                                   G    E        G
CHORUS 2:     That either way you turn, i'll be there
              E             G     E        G     E                G   (E)
              Open up your skull, i'll be there, climbing up the walls


LINK 2:       |(E)          | E           | E           | E        G  |


SOLO:         | B        G  | E        G  | B        G  | E        G  |

              | B        G  | E           | E           | E           |

              | E           |(E)          |


              (E)            (G)
OUTRO:          Climb up the walls

              |(G)    E     | G     E     | G     E     | G    (E)    |

              (E)           (G)
               Climb up the walls

              |(G)    E     | G     E     | G     E     | G(1)        |


==============================================================================================


10. NO SURPRISES
----------------

(PICKING: CAPO ON 15TH)
(STRUMING: CAPO ON 3RD)

D (xx0232)
D2/4 (xx0032)
G/D (xx0033)
A7/D (xx0020)
Em (022000)
A (x02220)
G (320033)
N/C (NO CHORD)
h (HOLD)


PICKING:


INTRO:        e|-2-------2-------2---------------0--2-------2-------2---------------0-|
              B|-----3-------3-------3---------3--------3-------3-------3---------3---|
              G|---2---2---2---2---2---2--0--2--------2---2---2---2---2---2--0--2-----| (x2)
              D|----------------------------------------------------------------------|
              A|----------------------------------------------------------------------|
              E|----------------------------------------------------------------------|



VERSE 1:      e|-2-------2-------2-------2-------2-------2-------2-------2-------|
              B|-----3-------3-------3-------3-------3-------3-------3-------3---|
              G|---2---2---2---2---2---2---2---2---0---0---0---0---0---0---0---0-|
              D|-----------------------------------------------------------------|
              A|-----------------------------------------------------------------|
              E|-----------------------------------------------------------------|

                A heart that's full up like a landfill, a job that slowly


              e|-3---------3----------------------0--2-------2-------2---------------0-|
              B|---0--3--0---0--3--0--3--2------2--------3-------3-------3---------3---|
              G|---------------------------2----2------2---2---2---2---2---2--0--2-----|
              D|-----------------------------2--2--------------------------------------|
              A|-----------------------------------------------------------------------|
              E|-----------------------------------------------------------------------|

                Kills you, bruises that won't heal


VERSE 2:      e|-2-------2-------2-------2-------2-------2-------2-------2-------|
              B|-----3-------3-------3-------3-------3-------3-------3-------3---|
              G|---2---2---2---2---2---2---2---2---0---0---0---0---0---0---0---0-|
              D|-----------------------------------------------------------------|
              A|-----------------------------------------------------------------|
              E|-----------------------------------------------------------------|

                You were so tired, happy, break down the government


              e|-3---------3----------------------0--2-------2-------2---------------0-|
              B|---0--3--0---0--3--0--3--2------2--------3-------3-------3---------3---|
              G|---------------------------2----2------2---2---2---2---2---2--0--2-----|
              D|-----------------------------2--2--------------------------------------|
              A|-----------------------------------------------------------------------|
              E|-----------------------------------------------------------------------|

                They don't, they don't speak for us



VERSE 3:      e|-2-------2-------2-------2-------2-------2-------2-------2-------|
              B|-----3-------3-------3-------3-------3-------3-------3-------3---|
              G|---2---2---2---2---2---2---2---2---0---0---0---0---0---0---0---0-|
              D|-----------------------------------------------------------------|
              A|-----------------------------------------------------------------|
              E|-----------------------------------------------------------------|

                I'll take the quiet life, a handshake of carbon monoxide and



CHORUS 1:     e|-------------------------------------------------------|
              B|-0-----------------------0----0-------------------3--2-|
              G|---2-2-0-0-------------0---0----2-2-0-0----------------|
              D|-----------4-4-2h--2-4------------------4-4-2h--2------|
              A|-------------------------------------------------------|
              E|-------------------------------------------------------|

                No alarms and no surprises, no alarms and no surprises


              e|-----------------------------2-------2-------2-------------------|
              B|-0-----------------------0-------3-------3-------3---------------|
              G|---2-2-0-0-------------0---0---2---2---2---2---2---2--3--2--0--3-|
              D|-----------4-4-2h--2-4-------------------------------------------|
              A|-----------------------------------------------------------------|
              E|-----------------------------------------------------------------|

                No alarms and no surprises, silence


              e|-2-------2-------2-------------------|
              B|-----3-------3-------3---------------|
              G|---2---2---2---2---2---2--3--2--0--3-|
              D|-------------------------------------|
              A|-------------------------------------|
              E|-------------------------------------|

                Silence



VERSE 4:      e|-2-------2-------2-------2-------2-------2-------2-------2-------|
              B|-----3-------3-------3-------3-------3-------3-------3-------3---|
              G|---2---2---2---2---2---2---2---2---0---0---0---0---0---0---0---0-|
              D|-----------------------------------------------------------------|
              A|-----------------------------------------------------------------|
              E|-----------------------------------------------------------------|

                This is my final fit, my final bellyache with



CHORUS 2:     e|-------------------------------------------------------|
              B|-0-----------------------0----0-------------------3--2-|
              G|---2-2-0-0-------------0---0----2-2-0-0----------------|
              D|-----------4-4-2h--2-4------------------4-4-2h--2------|
              A|-------------------------------------------------------|
              E|-------------------------------------------------------|

                No alarms and no surprises, no alarms and no surprises


              e|-----------------------------2-------2-------2---------------0-|
              B|-0-----------------------0-------3-------3-------3---------2---|
              G|---2-2-0-0-------------0---0---2---2---2---2---2---2--0--2-----|
              D|-----------4-4-2h--2-4-----------------------------------------|
              A|---------------------------------------------------------------|
              E|---------------------------------------------------------------|

                No alarms and no surprises, please



SOLO:         e|-----------------------------------------------------------|
              B|-2-2-3-2----------0-2-3-2-0---2-2-3-2----------0-2-3-2-0---|
              G|--2-2---2-2h--0-2-----------2--2-2---2-2h--0-2-----------2-|
              D|-----------------------------------------------------------|
              A|-----------------------------------------------------------|
              E|-----------------------------------------------------------|

              e|-0--------0------------------|
              B|-0----------0---0------------|
              G|-0----0-------0---3--2--0--3-|
              D|-2--2---2--------------------|
              A|-2---------------------------|
              E|-0---------------------------|



VERSE 5:      e|-2-------2-------2-------2-------2-------2-------2-------2-------|
              B|-----3-------3-------3-------3-------3-------3-------3-------3---|
              G|---2---2---2---2---2---2---2---2---0---0---0---0---0---0---0---0-|
              D|-----------------------------------------------------------------|
              A|-----------------------------------------------------------------|
              E|-----------------------------------------------------------------|

                Such a pretty house and such a pretty garden



CHORUS 3:     e|-------------------------------------------------------|
              B|-0-----------------------0----0-------------------3--2-|
              G|---2-2-0-0-------------0---0----2-2-0-0----------------|
              D|-----------4-4-2h--2-4------------------4-4-2h--2------|
              A|-------------------------------------------------------|
              E|-------------------------------------------------------|

                No alarms and no surprises, no alarms and no surprises
               (Get me out of here)        (get me out of here)


              e|-----------------------------2-------2-------2---------------------0-|
              B|-0-----------------------0-------3-------3-------3---------------2---|
              G|---2-2-0-0-------------0---0---2---2---2---2---2---2--3--2--0--3-----|
              D|-----------4-4-2h--2-4-----------------------------------------------|
              A|---------------------------------------------------------------------|
              E|---------------------------------------------------------------------|

                No alarms and no surprises, please
               (Get me out of here)


              e|-2-------2---------------0--------2-|
              B|-----3-------3-------3---------2--3-|
              G|---2---2---2---2---2---2--0--2----2-|
              D|----------------------------------0-|
              A|----------------------------------x-|
              E|----------------------------------x-|


STRUMING:


INTRO:        | N/C      | N/C      | D        | D        |


                D                            D2/4                        G/D
VERSE 1:      A heart that's full up like a landfill, a job that slowly kills you
              A7/D                D
              Bruises that won't heal


              D                         D2/4
VERSE 2:      You were so tired, happy, bring down the government
              G/D         A7/D                  D
              They don't, they don't speak for us


              D                            D2/4
VERSE 3:      I'll take the quiet life, a handshake of carbon monoxide and


              Em             A            Em             A
CHORUS 1:     No alarms and no surprises, no alarms and no surprises
              Em             A             D(1)    N/C
              No alarms and no surprises, silence, silence


              N/C
VERSE 4:      This is my final fit, my final bellyache with


              Em             A            Em             A
CHORUS 2:     No alarms and no surprises, no alarms and no surprises
              Em             A            D
              No alarms and no surprises, please


SOLO:         | A        | G        | A        | G        |

              | Em       | A        |


              D                        D2/4
VERSE 5:      Such a pretty house and such a pretty garden


               Em             A            Em             A
CHORUS 2:      No alarms and no surprises, no alarms and no surprises
              (get me         out of here, get me         out of here)
               Em             A             D(1) (N/C)
               No alarms and no surprises, please
              (get me         out of here)


OUTRO:        |(N/C)     | N/C      | D(1)     |



                
==============================================================================================


11. LUCKY 
---------

Em (022000)
Am (x02210)
G (320033)
Bm (x24432)
C (x32010)
A (x02220)
B7 (x21202)
Em/F# (2x2000)


              Em        Am   G         Bm         Em  C   G       Bm         Em
VERSE 1:       I'm on a roll, i'm on a roll this time, I feel my luck could change
                        Am  G         Bm         Em  C            G    Bm       Em
              Kill me sarah, kill me again with love, it's gonna be a glorious day


                      A          Em                A          Em
CHORUS 1:     Pull me out of the aircrash, pull me out of the wreck
                            A     Em          C               B7
              'Cos i'm your superhero, we are standing on the edge


LINK:         | Em         | Em/F#      | Em         | Em/F#      |
              
              | Em         | Em/F#      | Em         | Em/F#      |


              Em           Am   G               Bm     Em C       G          Bm       Em
VERSE 2:       The head of state has called for me by name but I don't have time for you
                         Am  G   Bm       Em C   G       Bm         Em
              It's gonna be   a glorious day, I feel my luck could change


                      A          Em                A          Em
CHORUS 2:     Pull me out of the aircrash, pull me out of the wreck
                            A     Em          C               B7
              'Cos i'm your superhero, we are standing on the edge


SOLO:         | Em           | Em/F#  Am  | G     Bm   | Bm         |
              
              | Em           | Em/F#  Am  | G     Bm   | Bm         |
              
              | Em           | Em/F#  Am  | G     Bm   | Bm         |
              
              | Em           | Em/F#  Am  | G     Bm   | Bm         |
              
              | Em               | Em               |
              
              | A                | Em               |
              
              | A                | Em               |
              
              | A                | Em               |

                     C               B7(1)
              We are standing on the edge


==============================================================================================


12. THE TOURIST
---------------

B (798877)
C#m ((10)(12)(12)(10)(10)(10))
G#m (466444)
F#m (244222)
A (577655)
Cm (8(10)(10)988)
Ebm ((11)(13)(13)(12)(12)(12))
G# (466566)
Am (577655)


INTRO:        | B                | B                | B                | 
              
              | C#m    B    G#m  | F#m              | F#m          G#m |
 
              | A                | A                | A                |

              | A      Cm        | C#m         Ebm  | G#               | G#               |


                 B               C#m  B  G#m    F#m   G#m 
VERSE 1:      It barks at no-one else           but me
              A                G#   C#m  Cm  G#  (B)
              Like it's seen a ghost
               (B)                    C#m  B  G#m   F#m   G#m 
              I guess it's seen the sparks       a-flowing
              A                 G#   C#m  Cm  G#  (B)
              No-one else would know
              (B)        F#m        Am        B       F#m        Am
               Hey man, slow down, slow down, idiot, slow down, slow down


LINK 1:       | B                | B                | F#m              | F#m              |
              
              | Am               | Am               |


              B               C#m  B  G#m   F#m    G#m 
VERSE 2:      Sometimes i get o   -   ver - charged
              A                   G#    C#m  Cm  G#  (B)
              That's when you see sparks
                 (B)                C#m  B  G#m  F#m
              You ask me where the hell     i'm  going
                 G#m  A                 G#    C#m  Cm  G#  (B)
              At a    thousand feet per second
              (B)        F#m        Am        B       F#m        Am
               Hey man, slow down, slow down, idiot, slow down, slow down


OUTRO:        | B                | B                | F#m              | F#m              |
              
              | Am               | Am               | B                | B                |
              
              | F#m              | F#m              | Am               | Am               |

              | B                | B                | F#m              | F#m              |
              
              | Am               | Am               |

              B         F#m        Am        B       F#m        Am
              Hey man, slow down, slow down, idiot, slow down, slow down

              | B                |  (x7)


==============================================================================================

and there you have it! Enjoy!!

-rigs-
comments
print report bad tab
3 comments total.
0 reply
random name 524 wrote on January 24 2007, 09:23 pm

Electioneering's Main Riff could be played a lot easier
(considering you dropped down to d)

Instead of:
d|-x-|-----------------------------------------------------|
B|-6-|---8--6---8--6---8--6---6-----8--6---8--6---8--6---6-|
G|-7-|-7------7------7------7-----7------7------7------7---|
D|-0-|--------------------------0--------------------------|

Play this: (its the only reason you would tune down in the 1st place)
d|-x-|---5------5------5------------5------5------5--------|
B|-6-|------6------6------6---6--------6------6------6---6-|
G|-7-|-7------7------7------7-----7------7------7------7---|
D|-0-|--------------------------0--------------------------|

0 reply
kelleherdylan wrote on January 22 2014, 11:45 pm

Airbag doesnt have Dm6 tabbed out. Anyone kind enough to tell me what it is?

0 reply
stepanov.ek wrote on July 11 2014, 11:45 am, edited at 11:48 am

I'm playing with this tabs few years and I say it fits there! =)
whole tabs are awesome in its simplicity!

I want to post or [tab]
guest
You may want to rate the tab now too:
select rating
Please do not post tabs as comments. Select "correction" instead!