Oops, an error
Loading. Please wait.

Paranoid Android Tab

ver1
ver1
More versions @911Tabs.com
85,044 views 133 this week
1 commentread comment
1 2 3 4 5
accurate
x 10
add to favorites launch autoscroll
font size
0
reset
Autoscroll
+/-
esc
set tempo
stop
Contributor
WARNING: You are trying to view
                                    content from Ultimate-Guitar.com
                                    in an unauthorized application,
                                    which is prohibited.

                                    Please use an official Ultimate
                                    Guitar Tabs application for iPhone,
                                    iPad or Android to access legitimate
                                    chords, guitar, bass, and drum tabs
                                    from Ultimate-Guitar.com database.

                                    Type "ultimate guitar tabs" in Apple
                                    App Store's or Android Market's
                                    search to find the application.
Added by Mikhailo (mikhailo_@mail.ru)

Artist : Radiohead
Song   : "Paranoid Android"

Riff1
Thom Yorke(gtr.1)(acoustic) 
e---------------------------------------------------------------------------
B------8---------------8-----------8-----------------------3----------------
G----------8---------------8-----------8----8---8---8----------3---3---3----
D------------------0-------------------------------------0------------------
A--------------0---------------0-8--------0---0----------------------0------
E--8-----8---8---6---6---6---6--------------------6----3-----3---3----------
|
Riff2
Jonny Greenwood (gtr.2)(electric)(w/flanger)
e----------------------------------------------------------------------------
B-----------------------------------------3/-/3\-----------------------------
G-----------------------------------------(2ndtime)--------------------------
D----------------------------------------------------------------------------
A----------------------------------------------------------------------------
E----------------------------------------------------------------------------


e-----------------------0--0--0----------------------------------------------0--0--0-----
B-------------3--3--3---3--3--3---------3--------------------------3--3--3---3--3--3-----
G---3---3-----3--3--2---0--0--0-------------3---3---3----3---3-----3--3--2---0--0--0-----
D-------------2--2---------------------0---------------------------2--2------------------
A-0---1-------------------------------------------0----0---1-----------------------------
E----------0-------------------------3-----3---3-----------------0--------------------(10-9)
| (2nd verse)
| ~ ~ ~ ~~~ ~~ ~ ~~~~
e---------------------------------------------------------------------------------------------
B-------15--15----15--15---15------15---------------------------3--3---3--3---3----3-4--------
G---------15--15----15--14---12-12---12---------------------------3--3---3--2---0-0----------
D---------------------------------------------------------------------------------------------
A---------------------------------------------------------------------------------------------
E---------------------------------------------------------------------------------------------

Repeat Riff1 and Riff2 1.5 times

gtr.1 (strum these chords) Riff3
e-------------------------------------------------------------------------------------------
B--3----------------------------3-------------------------------3---------------------------
G--3----------------------------2-------------------------------1---------------------------
D--0----------------------------3-------------------------------2---------------------------
A---------------------------------------------------------------2---------------------------
E--3----------------------------1-------------------------------0-------------------------2-
|
gtr.2 (w/flanger)Riff 4
e--------0------------0---------------0-------------0----------------0------------0------------
B-----------3------3-----3---------------3-----3-------3----------------3-----3-----3----------
G-----3-------3--3--3------3--------2------2--2-2--------2--------1-------1--1-1------1--------
D----------------------------------------------------------------------------------------------
A---------------------------------------------------------------2------------------------------
E--3-----------------------------1------------------------------0--------------------------2---
|
Ed o'Brien (gtr.3) Riff5
e--------12-----------12---------------12------------12---------------12-----------12-----------
B-----15----15-----15----15---------15----15------15----15---------15----15-----15----15--------
G--15-----------15----------15---14------------14----------15---13-----------13----------15-----
D-----------------------------------------------------------------------------------------------
A-----------------------------------------------------------------------------------------------
E-----------------------------------------------------------------------------------------------


gtr.1 (strum these chords)
e----------------------------------------------------------------------------------------------
B--3----------------------------3-------------------------------3------------------------------
G--3----------------------------2-------------------------------1------------------------------
D--0----------------------------3-------------------------------2------------------------------
A---------------------------------------------------------------2------------------------------
E--3----------------------------1-------------------------------0------------------------------
|
gtr.2 (w/flanger)
e--------0------------0---------------0-------------0----------------0------------0------------
B-----------3------3-----3---------------3-----3-------3----------------3-----3-----3----------
G-----3-------3--3--3------3--------2------2--2-2--------2--------1-------1--1-1------1--------
D----------------------------------------------------------------------------------------------
A---------------------------------------------------------------2------------------------------
E--3-----------------------------1------------------------------0------------------------------
|
Ed o'Brien (gtr.3) 
e--------12-----------12---------------12------------12---------------12-----------12-----------
B-----15----15-----15----15---------15----15------15----15---------15----15-----15----15--------
G--15-----------15----------15---14------------14----------15---13-----------13----------15-----
D-----------------------------------------------------------------------------------------------
A-----------------------------------------------------------------------------------------------
E-----------------------------------------------------------------------------------------------

gtr.1
e--------------------------------
B-3------------------------------
G-1------------------------------
D-2------------------------------
A-2------------------------------
E-0-------------------(10-9)-----
| 1ST time
gtr.2 (w/flanger)
e-----0------------0-------------
B--------3-----3-----3-----------
G--1-------1--1-1------1---------
D--------------------------------
A-2------------------------------
E-0------------------(11-10)-----
| 1ST TIME
|
Ed o'Brien (gtr.3) 
-------12-----------12-----------(17)-
B---15----15-----15----15-------------
G-13-----------13----------15----(14)-
D---------------------------------2ndtime
A-------------------------------------
E-------------------------------------


gtr.1 Riff1 

gtr.2(w/flanger)
e---3------------------3--------------------------------------------------------------------------
B-----4------------------4----------3-------15--15---15--15---15-----------3------3-3--3-3--3-----
G----------------------------0--------3-------15--15---15--14---12-12--------3-----3-3--3-2--0-0--
D---------0---1---3--3----------3----------------------------------------0------------------------
A-3--------------------------------------0--------------------------------------0-----------------
E---------------------------------3------------------------------------3--------------------------

e---3------------------3--------------------------------------------------------------------------
B-----4------------------4----------3-------15--15---15--15---15-----------3------3-3--3-3--3-----
G----------------------------0--2-----3-------15--15---15--14---12-12--------3-----3-3--3-2--0-0--
D---------0---1---3--3---------------------------------------------------0------------------------
A-3-------------------------------------0-0-1----------------------------------0-0----------------
E---------------------------------3------------------------------------3--------------------------

Gtr.1 Riff3 
Gtr.3 Riff5

gtr.2 (w/flanger)
e--------0--------1p0------------0--------1p0------------0-------1p0--------
B-----------3---3-----3-3----------3---3------3-3----------3---3-----3------
G-----3-------3-----------3----2-----2------------2----1-----1--------------
D---------------------------------------------------------------------------
A----------------------------------------------------2----------------------
E--3------------------------1------------------------0------------------2---

e--------0--------1p0------------0--------1p0--------------0------------0-----------0------------0-----
B-----------3---3-----3-3----------3---3------3-3------------3------3-----3-----------3------3-----3---
G-----3-------3-----------3----2-----2------------2-----1-------1--1-1------1----1-------1--1-1------1-
D------------------------------------------------------------------------------------------------------
A-----------------------------------------------------2------------------------2-----------------------
E--3------------------------1-------------------------0------------------------0-----------------------


gtr.1 Riff6
e-------------------------------------------------------------------------
B-------------------------------------------------------------------------
G------------------------------------------------------------------------- Repeat Riff6
D-------------------------------------------------------------------------
A-----------3--------------3--3--5--5-----------3---------5-3-0-5-5-3-0---
E-5---5--5-----5--4---4--4-------------5---5--5----5---4------------------
[------riff6a----------------------]


gtr.1 Riff7---------------------------------------------]
e--------------------------------------------------------
B-8---8--8---8--8--8--6--6-6-6-6-6--------------8--7-6-4-
G-9---9--9---10-10-9--5--5-5-7-7-7--Riff 7 x3---9--8-7-5-
D-10--10-10--10-10-10-6--6-6-8-8-8--------------10-9-8-6-
A--------------------------------------------------------
E-8---8--8------------4--4-4-6-6-6--------------8--7-6-4--

Gtr.1
e--------------------------------------------------------------------------------------------------
B--------------------------------------------------------------------------------------------------
G---Riff6a------------Riff6a----------------------Riff6a---------------Riff6a----------------------
D--------------------------------------------------------------------------------------------------
A--------------------------------------------------------------------------------------------------
E--------------------------------------------------------------------------------------------------

Ed O'Brien P.M----------------------------] s.
e--------------------------------------------------------------------------------------------------
B--------------------------------------------------------------------------------------------------
G--------------------------------------------------------------------------------------------------
D--------------------------------------------------------------------------------------------------
A----------------------3---------------3-3-5-5-----------------------------3---------------3-3-5-5-
E--------------5-5-5-5---5-5-5-4-4-4-4----------5\-----------------5-5-5-5---5-5-5-4-4-4-4---------

gtr.1 Riff7

gtr.1 Riff6a Riff6a

gtr.2(dist)>r.3 
s. s.
e---------------------------------------------------------------------------------------------------------
B---------------------------------------------------------------------------------------------------------
G---------------------------------------------------------------------------------------------------------
D---------------------------------------------------------------------------------------------------------
A--------------------------------3-------------3--5--/-/-/-/-/-/--//-----------------3-----------3-5------
E-12\-----------------12\-5--5-5---5--4--4-4-4--------------------------------5--5-5---5-4-4-4-4----------
(jonny uses that button thing)

gtr.1 Riff 7 

Ed O'Brien gtr.3
Riff8---------------------------------------------------------------]
Riff8a---------s.----------] s. s.
e----------------------------------------------------------------------
B----------------------------------------------------------------------
G-------------9\4--------10----Riff8ax2-------------9-\4---------------
D-10--10-10--10\5------8-10-------------------------10\5---------------
A-10--10-10-------6----8-8----------------10--10-10-------10-9-8-------
E-8---8--8--------4--4-6------------------8---8--8--------8--7-6-4\3---

gtr.1 riff6a Riff6a

gtr.3 Riff 6b-------------------------------]
~~~~~~~~~~~~ s.s.s.s.s.
e-----------------------------------------------------------------------------------------------------------
B-----------------------------------------------------------------------------------------------------------
G-----------------------------------------------------------------------------------------------------------
D-----------------------------------------------------------------------------------------------------------
A------------3-------------3--5--------------------------3------------3--5------------------5/14\5/15\5/10--
E-----5--5-5---5--4--4-4-4------------------------5--5-5---5-4--4-4-4---------------------------------------
|
gtr.2
Trem.s.
e--4-/-20--------------------20/-20------------------20-----20---20-----20-----20----------------------------
B------^^------------------------^^---------------------22/---------22/-----------22/-22/-22/-22/-22/-22/--0-
G------------------------------------------------22/-----------------------22/-----------------------------0-
D----------------------------------------------------------------------------------------------------------0-
A------------------------------------------------------------------------------------------------------------
E------------------------------------------------------------------------------------------------------------

gtr.1 Riff7

gtr.3 riff8

gtr.2 s. F
e-------------------------------------------------------------------------------------------------
B-8h10-/10\-/10\-8-0-9-11-/11\-9-0-8h10-/10\-/10\-8-0-7h9-5h7-3p0-8h10-/10\-/10\-8-0-10-9-8-7\----
G---------------------------------------------------------------------------------------------x-2-
D---------------------------------------------------------------------------------------------x-3-
A---------------------------------------------------------------------------------------------x-3-
E---------------------------------------------------------------------------------------------x-1-
                                            all 3 gtrs play the F


gtr.1 Riff9
Cm G A Dm A
e-------3--3-3------3--3-3-------------------------------------------------------
B-------4--4-4------3--3-3-------8--8-8-------5--5-5-------6--6-6-------5-5-5-5--
G--0-0--0--0-0------0--0-0-------7--7-7-------6--6-6--7-7--7--7-7-------6-6-6-6--
D--------------0-0-----0----8-8--8--8-8--7-7--7--7-7--7-7--7--7-7--7----7-7-7-7--
A--3-3---------2-2------------------------------------5-5----------7-7-----------
E---------------------------6-6--6-------5-5-----------------------5-5-----------

Dm C? Bb F/A Gm F
e-------------------------------------------------------------------------------
B------6--6-6-----6-6-6--------6--6---------6-6-6-6---------3----------1-1-1----
G-7-7--7--7-7-----0-0-0--------7--7-7-------5-6-5-5------3--3-3--------2-2-2-0--
D-7-7--7--7-7-------------8-8--8--8-8--7-7--7-7-7-7--5-5-5--5-5---3-3--3-3-3-0--
A-5-5----------7----7-----8-8--8----8----------------5-5-5----5---3-3--3-3-3-0--
E--------------8----------6-6----------5-5-----------3-3----------1-1-----------


E Esus4 E A Asus4 A
e--------------------0-0---------0-0-0----0-0----------------------------------
B------0----0---0-0--0-0----2--2-2-3-3-3--2-2----------------------------------
G---1--1--1-1-2-2-2--1-1--2-2--2-2-2-2-2--2-2----------------------------------
D-2-2--2--2-2-2-2-2--2-2--2-2--2-2-2-2-2--2-2----------------------------------
A-2-2--2--2-2-2-2-2--2-2--0-0-------------0------------------------------------
E-0-0--------------------------------------------------------------------------


gtr.1 Riff9 x4 (up to F on last one then....)

e---------0-0-----------------0-0--------------
B----0--0-0-0-0-0--0--------0--0-0-0-0-0--0----
G----1--1-1-2-2-1--1-1------1--1-1-2-2-1--1-1--
D----2--2-2-2-2-2--2-2------2--2-2-2-2-2--2-2--
A-2--2--2-2-2-2-2--2-2---2--2--2-2-2-2-2--2-2--
E-0----------------------0---------------------


gtr.1 Riff6a gtr.1 Riff6a
gtr.3 Riff6b

gtr.2 s.
e----------------------------------------------------------------------------------------------
B------------------------------------------------------------0------------------------x---x----
G-------------5------------5--7--7-7-7~~~~~~~~~~~~~~-----12\-0---------5------------5-x-7-x----
D-14\--7--7-7---7-6--6-6-6-----------------------------------0--7--7-7---7-6--6-6-6------------
A----------------------------------------------------------------------------------------------
E----------------------------------------------------------------------------------------------
        jonny uses that button thing

gtr.1 Riff 7

gtr.3 Riff 8 (but without the 9\4 slide bits)

gtr.2                                     .5
e--10--------------------10--------------------10-----------------------10-----------------------------
B--------10----------------------10---------------------10-------------------------13---12---11---9----
G-----8---------10-----------8----------10---------8/\----------10----------8/\----15/--14/--13/--11/--
D------------8-----------------------8---------------------8/\-----------------------------------------
A-------------------8-----------------------8-----------------------8----------------------------------
E------------------------------------------------------------------------------------------------------

gtr.1 Riff 6a Riff6a Riff6a             Riff6a
gtr.3 Riff 6b                     Riff6b

gtr.2                     *                         *
e-------------------------------------------------------------------------------------------------------
B--13---16--15--13----6-----13-----------------------13---16--15--13----4----13--15/-16---18---20--20---
G--15/--18/-17/-15/---8/----15/------15--15---15-\---15/--18/-17/-15/---6/---15/-17/-18/--20/--22/-22/--
D-------------------------------------------------------------------------------------------------------
A-------------------------------------------------------------------------------------------------------
E ------------------------------------------------------------------------------------------------------
*(some studio effects are added here)

gtr.1 Riff7
gtr.3 Riff 8 (but without the 9\4 slide bits)

gtr.2 s. s. s.
e-------------------------------------------10-8-10/\p8---------------------------------------------------|
B-10---8--------10-------------10-8-8--------------------10---8-------10-----------10-8-8-----------------|
G----0------_------0--10/\p8------------_-------------------0-----_------0--10/\p8--------------9-8-7--5--|
D----------8/10------------------------8/10----------------------8/10----------------------10-8-----------|
A---------------------------------------------------------------------------------------------------------|
E---------------------------------------------------------------------------------------------------------|
comments
print report bad tab
1 comment total.
-1 reply
simonnca wrote on November 3 2006, 09:43 am

not so great..

I want to post or [tab]
guest
You may want to rate the tab now too:
select rating
Please do not post tabs as comments. Select "correction" instead!