Oops, an error
Loading. Please wait.

Paranoid Android Tab

ver4
ver4
More versions @911Tabs.com
28,380 views 18 this week
3 commentsread comments
1 2 3 4 5
accurate
x 7
add to favorites launch autoscroll
font size
0
reset
Autoscroll
+/-
esc
set tempo
stop
Contributor
WARNING: You are trying to view
                                    content from Ultimate-Guitar.com
                                    in an unauthorized application,
                                    which is prohibited.

                                    Please use an official Ultimate
                                    Guitar Tabs application for iPhone,
                                    iPad or Android to access legitimate
                                    chords, guitar, bass, and drum tabs
                                    from Ultimate-Guitar.com database.

                                    Type "ultimate guitar tabs" in Apple
                                    App Store's or Android Market's
                                    search to find the application.
                               Paranoid Android                                 

                                                                       Radiohead
Acoustic (thom).

                                                        
E||----------------------|-----------------------------|
B||--7----7----7----7----|------8-------------8--------|
G||----------------------|---------8-------------8-----|
D||----------------------|----------------0------------|
A||----------------------|------------0--------------0-|
E||----------------------|--8-----------6---6------6---|


                                                              
-----------------------------|-------------------------------|
-------8---------------------|-------3-------------3---------|
----------8---------8---8----|-----------3-------------3-----|
-----------------------------|-----------------------------0-|
--8--8------8--0--0----------|----------------0--0---1---1---|
----------------------6---6--|--3--3---3---3-----------------|


                                                            
---------------------------|-------------------------------|
------3---3-3---3-3--3-----|-------3-------------3---------|
--------3---2-----0--0-----|-----------3-------------3-----|
--2---------------2--2-----|-----------------------------0-|
------------------------0--|----------------0--0---1---1---|
---------------------------|--3--3---3---3-----------------|


                                                          
---------------------------|-----------------------------|
------3---3-3---3-3--3-----|------8-------------8--------|
--------3---2-----0--0-----|---------8-------------8-----|
--2---------------2--2-----|----------------0------------|
------------------------0--|------------0--------------0-|
---------------------------|--8-----------6---6------6---|


                                                              
-----------------------------|-------------------------------|
-------8---------------------|-------3-------------3---------|
----------8---------8---8----|-----------3-------------3-----|
-----------------------------|-----------------------------0-|
--8--8------8--0--0----------|----------------0--0---1---1---|
----------------------6---6--|--3--3---3---3-----------------|


                                                            
---------------------------|-------------------------------|
------3---3-3---3-3--3-----|-------3-------------3---------|
--------3---2-----0--0-----|-----------3-------------3-----|
--2---------------2--2-----|-----------------------------0-|
------------------------0--|----------------0--0---1---1---|
---------------------------|--3--3---3---3-----------------|


                                                          
---------------------------|-----------------------------|
------3---3-3---3-3--3-----|------8-------------8--------|
--------3---2-----0--0-----|---------8-------------8-----|
--2---------------2--2-----|----------------0------------|
------------------------0--|------------0--------------0-|
---------------------------|--8-----------6---6------6---|


                                                              
-----------------------------|-------------------------------|
-------8---------------------|-------3-------------3---------|
----------8---------8---8----|-----------3-------------3-----|
-----------------------------|-----------------------------0-|
--8--8------8--0--0----------|----------------0--0---1---1---|
----------------------6---6--|--3--3---3---3-----------------|


                                                        
---------------------------|-------0-----------0-------|
------3---3-3---3----------|----------3-----3-----3----|
--------3---2-----0--0-----|-----3-------3----------3--|
--2---------------2--2-----|---------------------------|
------------------------0--|---------------------------|
---------------------------|--3------------------------|


                                                          
-------0-----------0-------|-------0------------0--------|
----------3-----3-----3----|----------3-----3------3-----|
-----2-------2----------2--|-----1-------1----1------1---|
---------------------------|-----------------------------|
---------------------------|--2--------------------------|
--1------------------------|--0------------------------2-|


                                                        
-------0-----------0-------|-------0-----------0-------|
----------3-----3-----3----|----------3-----3-----3----|
-----3-------3----------3--|-----2-------2----------2--|
---------------------------|---------------------------|
---------------------------|---------------------------|
--3------------------------|--1------------------------|


                                                          
-------0------------0-------|-------0--------------------|
----------3-----3------3----|----------3-----3-----------|
-----1-------1----1------1--|-----1-------1----1---------|
----------------------------|----------------------------|
--2-------------------------|--2-------------------------|
--0-------------------------|--0------------------10--9--|


                                                            
-----------------------------|-----------------------------|
------8-------------8--------|-------8---------------------|
---------8-------------8-----|----------8---------8---8----|
----------------0------------|-----------------------------|
------------0--------------0-|--8--8------8--0--0----------|
--8-----------6---6------6---|----------------------6---6--|


                                                            
-------------------------------|---------------------------|
-------3-------------3---------|------3---3-3---3-3--3-----|
-----------3-------------3-----|--------3---2-----0--0-----|
-----------------------------0-|--2---------------2--2-----|
----------------0--0---1---1---|------------------------0--|
--3--3---3---3-----------------|---------------------------|


                                                            
-------------------------------|---------------------------|
-------3-------------3---------|------3---3-3---3-3--3-----|
-----------3-------------3-----|--------3---2-----0--0-----|
-----------------------------0-|--2---------------2--2-----|
----------------0--0---1---1---|------------------------0--|
--3--3---3---3-----------------|---------------------------|


                                                            
-----------------------------|-----------------------------|
------8-------------8--------|-------8---------------------|
---------8-------------8-----|----------8---------8---8----|
----------------0------------|-----------------------------|
------------0--------------0-|--8--8------8--0--0----------|
--8-----------6---6------6---|----------------------6---6--|


                                                            
-------------------------------|---------------------------|
-------3-------------3---------|------3---3-3---3----------|
-----------3-------------3-----|--------3---2-----0--0-----|
-----------------------------0-|--2---------------2--2-----|
----------------0--0---1---1---|------------------------0--|
--3--3---3---3-----------------|---------------------------|


                                                        
-------0-----------0-------|-------0-----------0-------|
----------3-----3-----3----|----------3-----3-----3----|
-----3-------3----------3--|-----2-------2----------2--|
---------------------------|---------------------------|
---------------------------|---------------------------|
--3------------------------|--1------------------------|


                                                          
-------0------------0--------|-------0-----------0-------|
----------3-----3------3-----|----------3-----3-----3----|
-----1-------1----1------1---|-----3-------3----------3--|
-----------------------------|---------------------------|
--2--------------------------|---------------------------|
--0------------------------2-|--3------------------------|


                                                         
-------0-----------0-------|-------0------------0-------|
----------3-----3-----3----|----------3-----3------3----|
-----2-------2----------2--|-----1-------1----1------1--|
---------------------------|----------------------------|
---------------------------|--2-------------------------|
--1------------------------|--0-------------------------|


                                                           
-------0-------------0-------|----------------------------|
----------3------3------3----|----------------------------|
-----1------1--1---1------1--|----------------------------|
-----------------------------|----------------------------|
--2--------------------------|---------3------------3--5--|
--0--------------------------|--5--5-5---5--4--4--4-------|


                                                             
-------------------------------|----------------------------|
-------------------------------|----------------------------|
-------------------------------|----------------------------|
-------------------------------|----------------------------|
---------3-------5-3---5-3---3-|---------3------------3--5--|
--5--5-5---5--4------5-----5---|--5--5-5---5--4--4--4-------|


                                                             
-------------------------------|----------------------------|
-------------------------------|--5--5-x-5-5-x-6--6-x-3-x-x-|
-------------------------------|--5--5-x-5-5-x-5--5-x-3-x-x-|
-------------------------------|--5--5-x-5-5-x-6--6-x-3-x-x-|
---------3-------5-3---5-3---3-|--3--3-3-3-3-x------x-1-x-x-|
--5--5-5---5--4------5-----5---|---------------4--4---------|


                                                          
----------------------------|----------------------------|
--5--5-x-6-5-x-6--6-x-3-x-x-|--5--5-x-5-5-x-6--6-x-3-x-x-|
--5--5-x-5-5-x-5--5-x-3-x-x-|--5--5-x-5-5-x-5--5-x-3-x-x-|
--5--5-x-5-5-x-6--6-x-3-x-x-|--5--5-x-5-5-x-6--6-x-3-x-x-|
--3--3-3-3-3-x------x-1-x-x-|--3--3-3-3-3-x------x-1-x-x-|
---------------4--4---------|---------------4--4---------|


                                                               
---------------------------------|----------------------------|
--5--5-x-5-5-x-x-5-4-x-3-x-x-x-x-|----------------------------|
--5--5-x-5-5-x-x-5-4-x-3-x-x-x-x-|----------------------------|
--5--5-x-5-5-x-x-5-4-x-3-x-x-x-x-|----------------------------|
--3--3-3-3-3-x-x-3-2-x-1-x-x-x-x-|--7--7-7-7-7--6--6--6-3--5--|
---------------------------------|--5--5-5-8-5--4--4--4-------|


                                                           
-----------------------------|----------------------------|
-----------------------------|----------------------------|
-----------------------------|----------------------------|
-----------------------------|----------------------------|
--7--7-7-7-7--6--5-3---3--5--|--7--7-7-7-7--6--6--6-3--5--|
--5--5-5-8-5--4------5-------|--5--5-5-8-5--4--4--4-------|


                                                           
-----------------------------|----------------------------|
-----------------------------|--5--5-x-5-5-x-6--6-x-3-x-x-|
-----------------------------|--5--5-x-5-5-x-5--5-x-3-x-x-|
-----------------------------|--5--5-x-5-5-x-6--6-x-3-x-x-|
--7--7-7-7-7--6--5-3---3--5--|--3--3-3-3-3-x------x-1-x-x-|
--5--5-5-8-5--4----4-5-------|---------------4--4---------|


                                                          
----------------------------|----------------------------|
--5--5-x-6-5-x-6--6-x-3-x-x-|--5--5-x-5-5-x-6--6-x-3-x-x-|
--5--5-x-5-5-x-5--5-x-3-x-x-|--5--5-x-5-5-x-5--5-x-3-x-x-|
--5--5-x-5-5-x-6--6-x-3-x-x-|--5--5-x-5-5-x-6--6-x-3-x-x-|
--3--3-3-3-3-x------x-1-x-x-|--3--3-3-3-3-x------x-1-x-x-|
---------------4--4---------|---------------4--4---------|


                                                             
-------------------------------|----------------------------|
--5--5-x-5-5-x-x-5-4-x-3--1-1--|----------------------------|
--5--5-x-5-5-x-x-5-4-x-3--1-1--|----------------------------|
--5--5-x-5-5-x-x-5-4-x-3--1-1--|----------------------------|
--3--3-3-3-3-x-x-3-2-x-1--1-1--|---------3------------3--5--|
-------------------------------|--5--5-5---5--4--4--4-------|


                                                          
----------------------------|----------------------------|
----------------------------|----------------------------|
----------------------------|----------------------------|
----------------------------|----------------------------|
---------3------------3--5--|---------3------------3--5--|
--5--5-5---5--4--4--4-------|--5--5-5---5--4--4--4-------|


                                                          
----------------------------|----------------------------|
----------------------------|--5--5-x-5-5-x-6--6-x-3-x-x-|
----------------------------|--5--5-x-5-5-x-5--5-x-3-x-x-|
----------------------------|--5--5-x-5-5-x-6--6-x-3-x-x-|
---------3------------3--5--|--3--3-3-3-3-x------x-1-x-x-|
--5--5-5---5--4--4--4-------|---------------4--4---------|


                                                          
----------------------------|----------------------------|
--5--5-x-6-5-x-6--6-x-3-x-x-|--5--5-x-5-5-x-6--6-x-3-x-x-|
--5--5-x-5-5-x-5--5-x-3-x-x-|--5--5-x-5-5-x-5--5-x-3-x-x-|
--5--5-x-5-5-x-6--6-x-3-x-x-|--5--5-x-5-5-x-6--6-x-3-x-x-|
--3--3-3-3-3-x------x-1-x-x-|--3--3-3-3-3-x------x-1-x-x-|
---------------4--4---------|---------------4--4---------|


                                                             
-------------------------------|----------------------------|
--5--5-x-5-5-x-x-5-4-x-3--1-1--|----------------------------|
--5--5-x-5-5-x-x-5-4-x-3--1-1--|----------------------------|
--5--5-x-5-5-x-x-5-4-x-3--1-1--|----------------------------|
--3--3-3-3-3-x-x-3-2-x-1--1-1--|--7--7-7-7-7--6--6--6-3--5--|
-------------------------------|--5--5-5-8-5--4--4--4-------|


                                                           
-----------------------------|----------------------------|
-----------------------------|----------------------------|
-----------------------------|----------------------------|
-----------------------------|----------------------------|
--7--7-7-7-7--6--5-3---3--5--|--7--7-7-7-7--6--6--6-3--5--|
--5--5-5-8-5--4------5-------|--5--5-5-8-5--4--4--4-------|


                                                           
-----------------------------|----------------------------|
-----------------------------|--5--5-x-5-5-x-6--6-x-3-x-x-|
-----------------------------|--5--5-x-5-5-x-5--5-x-3-x-x-|
-----------------------------|--5--5-x-5-5-x-6--6-x-3-x-x-|
--7--7-7-7-7--6--5-3---3--5--|--3--3-3-3-3-x------x-1-x-x-|
--5--5-5-8-5--4----4-5-------|---------------4--4---------|


                                                          
----------------------------|----------------------------|
--5--5-x-6-5-x-6--6-x-3-x-x-|--5--5-x-5-5-x-6--6-x-3-x-x-|
--5--5-x-5-5-x-5--5-x-3-x-x-|--5--5-x-5-5-x-5--5-x-3-x-x-|
--5--5-x-5-5-x-6--6-x-3-x-x-|--5--5-x-5-5-x-6--6-x-3-x-x-|
--3--3-3-3-3-x------x-1-x-x-|--3--3-3-3-3-x------x-1-x-x-|
---------------4--4---------|---------------4--4---------|


                                                                       
-------------------------------|--1----------------|------------------|
--5--5-x-5-5-x-x-5-4-x-3--1-1--|--1----------------|------------------|
--5--5-x-5-5-x-x-5-4-x-3--1-1--|--2----------------|------------------|
--5--5-x-5-5-x-x-5-4-x-3--1-1--|--3----------------|------------------|
--3--3-3-3-3-x-x-3-2-x-1--1-1--|--3----------------|------------------|
-------------------------------|--1----------------|------------------|


                                                              
--3--3--3-3-3-3-3--3--3-3-3-3-|--3--3--3-3-3-3-5--5--5-5-5-5-|
--4--4--4-4-4-4-3--3--3-3-3-3-|--3--3--3-3-3-3-5--5--5-5-5-5-|
--5--5--5-5-5-5-4--4--4-4-4-4-|--3--3--3-3-3-3-6--6--6-6-6-6-|
--5--5--5-5-5-5-5--5--5-5-5-5-|--5--5--5-5-5-5-7--7--7-7-7-7-|
--3--3--3-3-3-3-5--5--5-5-5-5-|--5--5--5-5-5-5-7--7--7-7-7-7-|
----------------3--3--3-3-3-3-|--3--3--3-3-3-3-5--5--5-5-5-5-|


                                                              
--5--5--5-5-5-5-5--5--5-5-5-5-|--5--5--5-5-5-5---------------|
--6--6--6-6-6-6-5--5--5-5-5-5-|--6--6--6-6-6-6-6--6--6-6-6-6-|
--7--7--7-7-7-7-6--6--6-6-6-6-|--7--7--7-7-7-7-7--7--7-7-7-7-|
--7--7--7-7-7-7-7--7--7-7-7-7-|--7--7--7-7-7-7-7--7--7-7-7-7-|
--5--5--5-5-5-5-7--7--7-7-7-7-|--5--5--5-5-5-5---------------|
----------------5--5--5-5-5-5-|----------------8--8--8-8-8-8-|


                                                              
--1--1--1-1-1-1-1--1--1-1-1-1-|------------------------------|
--3--3--3-3-3-3-1--1--1-1-1-1-|--3--3--3-3-3-3-1--1--1-1-1-1-|
--3--3--3-3-3-3-2--2--2-2-2-2-|--3--3--3-3-3-3-2--2--2-2-2-2-|
--3--3--3-3-3-3-3--3--3-3-3-3-|--5--5--5-5-5-5-3--3--3-3-3-3-|
--1--1--1-1-1-1-3--3--3-3-3-3-|--5--5--5-5-5-5-3--3--3-3-3-3-|
----------------1--1--1-1-1-1-|--3--3--3-3-3-3-1--1--1-1-1-1-|


                                                              
------------------------------|--0--0--0-0-0-0-0--0--0-0-0-0-|
--3--3--3-3-3-3-3--3--3-3-3-3-|--2--2--2-2-2-2-2--2--2-2-2-2-|
--1--1--1-1-1-1-2--2--1-1-1-1-|--2--2--2-2-2-2-2--2--2-2-2-2-|
--0--0--0-0-0-0-0--0--0-0-0-0-|--2--2--2-2-2-2-2--2--2-2-2-2-|
--2--2--2-2-2-2-2--2--2-2-2-2-|--0--0--0-0-0-0-0--0--0-0-0-0-|
--0--0--0-0-0-0-0--0--0-0-0-0-|------------------------------|


                                                              
--3--3--3-3-3-3-3--3--3-3-3-3-|--3--3--3-3-3-3-5--5--5-5-5-5-|
--4--4--4-4-4-4-3--3--3-3-3-3-|--3--3--3-3-3-3-5--5--5-5-5-5-|
--5--5--5-5-5-5-4--4--4-4-4-4-|--3--3--3-3-3-3-6--6--6-6-6-6-|
--5--5--5-5-5-5-5--5--5-5-5-5-|--5--5--5-5-5-5-7--7--7-7-7-7-|
--3--3--3-3-3-3-5--5--5-5-5-5-|--5--5--5-5-5-5-7--7--7-7-7-7-|
----------------3--3--3-3-3-3-|--3--3--3-3-3-3-5--5--5-5-5-5-|


                                                              
--5--5--5-5-5-5-5--5--5-5-5-5-|--5--5--5-5-5-5---------------|
--6--6--6-6-6-6-5--5--5-5-5-5-|--6--6--6-6-6-6-6--6--6-6-6-6-|
--7--7--7-7-7-7-6--6--6-6-6-6-|--7--7--7-7-7-7-7--7--7-7-7-7-|
--7--7--7-7-7-7-7--7--7-7-7-7-|--7--7--7-7-7-7-7--7--7-7-7-7-|
--5--5--5-5-5-5-7--7--7-7-7-7-|--5--5--5-5-5-5---------------|
----------------5--5--5-5-5-5-|----------------8--8--8-8-8-8-|


                                                              
--1--1--1-1-1-1-1--1--1-1-1-1-|------------------------------|
--3--3--3-3-3-3-1--1--1-1-1-1-|--3--3--3-3-3-3-1--1--1-1-1-1-|
--3--3--3-3-3-3-2--2--2-2-2-2-|--3--3--3-3-3-3-2--2--2-2-2-2-|
--3--3--3-3-3-3-3--3--3-3-3-3-|--5--5--5-5-5-5-3--3--3-3-3-3-|
--1--1--1-1-1-1-3--3--3-3-3-3-|--5--5--5-5-5-5-3--3--3-3-3-3-|
----------------1--1--1-1-1-1-|--3--3--3-3-3-3-1--1--1-1-1-1-|


                                                              
------------------------------|--0--0--0-0-0-0-0--0--0-0-0-0-|
--3--3--3-3-3-3-3--3--3-3-3-3-|--2--2--2-2-2-2-2--2--2-2-2-2-|
--1--1--1-1-1-1-2--2--1-1-1-1-|--2--2--2-2-2-2-2--2--2-2-2-2-|
--0--0--0-0-0-0-0--0--0-0-0-0-|--2--2--2-2-2-2-2--2--2-2-2-2-|
--2--2--2-2-2-2-2--2--2-2-2-2-|--0--0--0-0-0-0-0--0--0-0-0-0-|
--0--0--0-0-0-0-0--0--0-0-0-0-|------------------------------|


                                                              
--3--3--3-3-3-3-3--3--3-3-3-3-|--3--3--3-3-3-3-5--5--5-5-5-5-|
--4--4--4-4-4-4-3--3--3-3-3-3-|--3--3--3-3-3-3-5--5--5-5-5-5-|
--5--5--5-5-5-5-4--4--4-4-4-4-|--3--3--3-3-3-3-6--6--6-6-6-6-|
--5--5--5-5-5-5-5--5--5-5-5-5-|--5--5--5-5-5-5-7--7--7-7-7-7-|
--3--3--3-3-3-3-5--5--5-5-5-5-|--5--5--5-5-5-5-7--7--7-7-7-7-|
----------------3--3--3-3-3-3-|--3--3--3-3-3-3-5--5--5-5-5-5-|


                                                              
--5--5--5-5-5-5-5--5--5-5-5-5-|--5--5--5-5-5-5---------------|
--6--6--6-6-6-6-5--5--5-5-5-5-|--6--6--6-6-6-6-6--6--6-6-6-6-|
--7--7--7-7-7-7-6--6--6-6-6-6-|--7--7--7-7-7-7-7--7--7-7-7-7-|
--7--7--7-7-7-7-7--7--7-7-7-7-|--7--7--7-7-7-7-7--7--7-7-7-7-|
--5--5--5-5-5-5-7--7--7-7-7-7-|--5--5--5-5-5-5---------------|
----------------5--5--5-5-5-5-|----------------8--8--8-8-8-8-|


                                                              
--1--1--1-1-1-1-1--1--1-1-1-1-|------------------------------|
--3--3--3-3-3-3-1--1--1-1-1-1-|--3--3--3-3-3-3-1--1--1-1-1-1-|
--3--3--3-3-3-3-2--2--2-2-2-2-|--3--3--3-3-3-3-2--2--2-2-2-2-|
--3--3--3-3-3-3-3--3--3-3-3-3-|--5--5--5-5-5-5-3--3--3-3-3-3-|
--1--1--1-1-1-1-3--3--3-3-3-3-|--5--5--5-5-5-5-3--3--3-3-3-3-|
----------------1--1--1-1-1-1-|--3--3--3-3-3-3-1--1--1-1-1-1-|


                                                              
------------------------------|--0--0--0-0-0-0-0--0--0-0-0-0-|
--3--3--3-3-3-3-3--3--3-3-3-3-|--2--2--2-2-2-2-2--2--2-2-2-2-|
--1--1--1-1-1-1-2--2--1-1-1-1-|--2--2--2-2-2-2-2--2--2-2-2-2-|
--0--0--0-0-0-0-0--0--0-0-0-0-|--2--2--2-2-2-2-2--2--2-2-2-2-|
--2--2--2-2-2-2-2--2--2-2-2-2-|--0--0--0-0-0-0-0--0--0-0-0-0-|
--0--0--0-0-0-0-0--0--0-0-0-0-|------------------------------|


                                                              
--3--3--3-3-3-3-3--3--3-3-3-3-|--3--3--3-3-3-3-5--5--5-5-5-5-|
--4--4--4-4-4-4-3--3--3-3-3-3-|--3--3--3-3-3-3-5--5--5-5-5-5-|
--5--5--5-5-5-5-4--4--4-4-4-4-|--3--3--3-3-3-3-6--6--6-6-6-6-|
--5--5--5-5-5-5-5--5--5-5-5-5-|--5--5--5-5-5-5-7--7--7-7-7-7-|
--3--3--3-3-3-3-5--5--5-5-5-5-|--5--5--5-5-5-5-7--7--7-7-7-7-|
----------------3--3--3-3-3-3-|--3--3--3-3-3-3-5--5--5-5-5-5-|


                                                              
--5--5--5-5-5-5-5--5--5-5-5-5-|--5--5--5-5-5-5---------------|
--6--6--6-6-6-6-5--5--5-5-5-5-|--6--6--6-6-6-6-6--6--6-6-6-6-|
--7--7--7-7-7-7-6--6--6-6-6-6-|--7--7--7-7-7-7-7--7--7-7-7-7-|
--7--7--7-7-7-7-7--7--7-7-7-7-|--7--7--7-7-7-7-7--7--7-7-7-7-|
--5--5--5-5-5-5-7--7--7-7-7-7-|--5--5--5-5-5-5---------------|
----------------5--5--5-5-5-5-|----------------8--8--8-8-8-8-|


                                                              
--1--1--1-1-1-1-1--1--1-1-1-1-|------------------------------|
--3--3--3-3-3-3-1--1--1-1-1-1-|--3--3--3-3-3-3-1--1--1-1-1-1-|
--3--3--3-3-3-3-2--2--2-2-2-2-|--3--3--3-3-3-3-2--2--2-2-2-2-|
--3--3--3-3-3-3-3--3--3-3-3-3-|--5--5--5-5-5-5-3--3--3-3-3-3-|
--1--1--1-1-1-1-3--3--3-3-3-3-|--5--5--5-5-5-5-3--3--3-3-3-3-|
----------------1--1--1-1-1-1-|--3--3--3-3-3-3-1--1--1-1-1-1-|


                                                              
------------------------------|------------------------------|
--3--3--3-3-3-3-3--3--3-3-3-3-|--3--3--3-3-3-3-3--3--3-3-3-3-|
--1--1--1-1-1-1-2--2--1-1-1-1-|--1--1--1-1-1-1-2--2--1-1-1-1-|
--0--0--0-0-0-0-0--0--0-0-0-0-|--0--0--0-0-0-0-0--0--0-0-0-0-|
--2--2--2-2-2-2-2--2--2-2-2-2-|--2--2--2-2-2-2-2--2--2-2-2-2-|
--0--0--0-0-0-0-0--0--0-0-0-0-|--0--0--0-0-0-0-0--0--0-0-0-0-|


                                                             
----------------------------|-------------------------------|
----------------------------|-------------------------------|
----------------------------|-------------------------------|
----------------------------|-------------------------------|
---------3------------3--5--|---------3-------5-3---5-3---3-|
--5--5-5---5--4--4--4-------|--5--5-5---5--4------5-----5---|


                                                             
----------------------------|-------------------------------|
----------------------------|-------------------------------|
----------------------------|-------------------------------|
----------------------------|-------------------------------|
---------3------------3--5--|---------3-------5-3---5-3---3-|
--5--5-5---5--4--4--4-------|--5--5-5---5--4------5-----5---|


                                                          
----------------------------|----------------------------|
--5--5-x-5-5-x-6--6-x-3-x-x-|--5--5-x-6-5-x-6--6-x-3-x-x-|
--5--5-x-5-5-x-5--5-x-3-x-x-|--5--5-x-5-5-x-5--5-x-3-x-x-|
--5--5-x-5-5-x-6--6-x-3-x-x-|--5--5-x-5-5-x-6--6-x-3-x-x-|
--3--3-3-3-3-x------x-1-x-x-|--3--3-3-3-3-x------x-1-x-x-|
---------------4--4---------|---------------4--4---------|


                                                               
----------------------------|---------------------------------|
--5--5-x-5-5-x-6--6-x-3-x-x-|--5--5-x-5-5-x-x-5-4-x-3-x-x-x-x-|
--5--5-x-5-5-x-5--5-x-3-x-x-|--5--5-x-5-5-x-x-5-4-x-3-x-x-x-x-|
--5--5-x-5-5-x-6--6-x-3-x-x-|--5--5-x-5-5-x-x-5-4-x-3-x-x-x-x-|
--3--3-3-3-3-x------x-1-x-x-|--3--3-3-3-3-x-x-3-2-x-1-x-x-x-x-|
---------------4--4---------|---------------------------------|


                                                           
----------------------------|-----------------------------|
----------------------------|-----------------------------|
----------------------------|-----------------------------|
----------------------------|-----------------------------|
--7--7-7-7-7--6--6--6-3--5--|--7--7-7-7-7--6--5-3---3--5--|
--5--5-5-8-5--4--4--4-------|--5--5-5-8-5--4------5-------|


                                                           
----------------------------|-----------------------------|
----------------------------|-----------------------------|
----------------------------|-----------------------------|
----------------------------|-----------------------------|
--7--7-7-7-7--6--6--6-3--5--|--7--7-7-7-7--6--5-3---3--5--|
--5--5-5-8-5--4--4--4-------|--5--5-5-8-5--4----4-5-------|


                                                          
----------------------------|----------------------------|
--5--5-x-5-5-x-6--6-x-3-x-x-|--5--5-x-6-5-x-6--6-x-3-x-x-|
--5--5-x-5-5-x-5--5-x-3-x-x-|--5--5-x-5-5-x-5--5-x-3-x-x-|
--5--5-x-5-5-x-6--6-x-3-x-x-|--5--5-x-5-5-x-6--6-x-3-x-x-|
--3--3-3-3-3-x------x-1-x-x-|--3--3-3-3-3-x------x-1-x-x-|
---------------4--4---------|---------------4--4---------|


                                                             
----------------------------|------------------------------||
--5--5-x-5-5-x-6--6-x-3-x-x-|--5--5-x-5-5-x-x-5-4-x-3--1---||
--5--5-x-5-5-x-5--5-x-3-x-x-|--5--5-x-5-5-x-x-5-4-x-3--1---||
--5--5-x-5-5-x-6--6-x-3-x-x-|--5--5-x-5-5-x-x-5-4-x-3--1---||
--3--3-3-3-3-x------x-1-x-x-|--3--3-3-3-3-x-x-3-2-x-1--1---||
---------------4--4---------|------------------------------||







//////////////////////////////////////////////////////////////////////////////////
                               Paranoid Android


                                                                       Radiohead
Lead 1 (jonny)

                                                                         
E||------|------------------|------------------|------------------------|
B||------|------------------|------------------|---------------15----15-|
G||------|------------------|------------------|------------------15----|
D||------|------------------|------------------|------------------------|
A||------|------------------|------------------|------------------------|
E||------|------------------|------------------|------------------------|


                                                                       
----------------------------------------------|-----------------------|
-----15----15----15----15----15----15-----15--|-----------------3---3-|
--15~---15----15----14~---14----12----12------|--12~--------------3---|
----------------------------------------------|-----------------------|
----------------------------------------------|-----------------------|
----------------------------------------------|-----------------------|


                                                                        
--------------------------------|-------------------|------------------|
----3---3---3---3---3---3----3--|--4~---------------|------------------|
--3~--3---3---2~--2---0---0-----|-------------------|------------------|
--------------------------------|-------------------|------------------|
--------------------------------|-------------------|------------------|
--------------------------------|-------------------|------------------|


                                                                        
------------------------|----------------------------------------------|
---------------15----15-|-----15----15----15----15----15----15-----15--|
------------------15----|--15~---15----15----14~---14----12----12------|
------------------------|----------------------------------------------|
------------------------|----------------------------------------------|
------------------------|----------------------------------------------|


                                                                             
-----------------------|--------------------------------|-------------------|
-----------------3---3-|----3---3---3---3---3---3----3--|--4~---------------|
--12~--------------3---|--3~--3---3---2~--2---0---0-----|-------------------|
-----------------------|--------------------------------|-------------------|
-----------------------|--------------------------------|-------------------|
-----------------------|--------------------------------|-------------------|


                                              
--------------------|------------------------|
----------3b---3r---|---------------15----15-|
--------------------|------------------15----|
--------------------|------------------------|
--------------------|------------------------|
--------------------|------------------------|


                                                                           
----------------------------------------------|-------0-----------0-------|
-----15----15----15----15----15----15-----15--|----------3-----3-----3----|
--15~---15----15----14~---14----12----12------|-----3-------3----------3--|
----------------------------------------------|---------------------------|
----------------------------------------------|---------------------------|
----------------------------------------------|--3------------------------|


                                                          
-------0-----------0-------|-------0------------0--------|
----------3-----3-----3----|----------3-----3------3-----|
-----2-------2----------2--|-----1-------1----1------1---|
---------------------------|-----------------------------|
---------------------------|--2--------------------------|
--1------------------------|--0------------------------2-|


                                                        
-------0-----------0-------|-------0-----------0-------|
----------3-----3-----3----|----------3-----3-----3----|
-----3-------3----------3--|-----2-------2----------2--|
---------------------------|---------------------------|
---------------------------|---------------------------|
--3------------------------|--1------------------------|


                                                          
-------0------------0-------|-------0--------------------|
----------3-----3------3----|----------3-----3-----------|
-----1-------1----1------1--|-----1-------1----1---------|
----------------------------|----------------------------|
--2-------------------------|--2-------------------------|
--0-------------------------|--0------------------10--9--|


                                                               
------------------------------|-------------------------------|
-------8-------------8--------|-------8--------------8--------|
----------8---8----------8----|-----------8-----0--0-----8----|
----------------0--0----------|--7------------7---------------|
-----------------------6---6--|--8--8---8---8----------8---8--|
--8--8------8-----------------|-------------------------------|


                                   
----------------------------------|
-------3-----------------15----15~|
-----------3----------------15~---|
----------------------------------|
----------------0--0/-13----------|
--3--3---3---3--------------------|


                                                                               
----------------------------------------------|-------------------------------|
-----15----15----15----15----15----15-----15--|-------3-----------------3---3~|
--15~---15----15----14~---14----12----12------|-----------3---------------3~--|
----------------------------------------------|-------------------------------|
----------------------------------------------|-------------0h1-0--0--1-------|
----------------------------------------------|--3--3---3---------------------|


                                                                 
---------------------------------|------------------------------|
----3---3---3---3---3---3--------|-------8-------------8--------|
--3~--3---3---2~--2---0----------|----------8---8----------8----|
---------------------------------|----------------0--0----------|
---------------------------------|-----------------------6---6--|
--------------------------10--9--|--8--8------8-----------------|


                                                                   
-------------------------------|----------------------------------|
-------8--------------8--------|-------3-----------------15----15~|
-----------8-----0--0-----8----|-----------3----------------15~---|
--7------------7---------------|----------------------------------|
--8--8---8---8----------8---8--|----------------0--0/-13----------|
-------------------------------|--3--3---3---3--------------------|


                                                                            
----------------------------------------------|-------0-------1h0----------|
-----15----15----15----15----15----15-----15--|----------3---------3--3----|
--15~---15----15----14~---14----12----12------|-----3------3------------3--|
----------------------------------------------|----------------------------|
----------------------------------------------|----------------------------|
----------------------------------------------|--3-------------------------|


                                                           
-------0-------1h0----------|-------0-------1h0-----------|
----------3---------3--3----|----------3---------3--3-----|
-----2------2------------2--|-----1------1------------1---|
----------------------------|-----------------------------|
----------------------------|--2--------------------------|
--1-------------------------|--0------------------------2-|


                                                          
-------0-------1h0----------|-------0-------1h0----------|
----------3---------3--3----|----------3---------3--3----|
-----3------3------------3--|-----2------2------------2--|
----------------------------|----------------------------|
----------------------------|----------------------------|
--3-------------------------|--1-------------------------|


                                                                              
-------0---------0---------0-|----------0---------0-------|------------------|
----------3---------3--------|---3---------3---------3----|------------------|
-----1------1--1------1--1---|-----1--1------1--1------1--|------------------|
-----------------------------|----------------------------|------------------|
--2--------------------------|----------------------------|------------------|
--0--------------------------|----------------------------|------------------|


                                                         
------------------|------------------|------------------|
------------------|------------------|------------------|
------------------|------------------|------------------|
------------------|------------------|------------------|
------------------|------------------|------------------|
------------------|------------------|------------------|


                                                                           
------------------------|------------------------|------------------------|
------------------------|------------------------|------------------------|
------------------------|------------------------|------------------------|
-------3-5-----------0--|-------3-5-----------0--|-------3-5-----------0--|
-------3--------3--1-1--|----------------3--1----|----------------3--1----|
----3------3-4--4-------|----3------3-4----------|----3------3-4----------|


                                                                              
-----------------------|------------------|----------------------------------|
-----------------------|------------------|----------------------------------|
-----------------------|------------------|----------------------------------|
--------3-5------------|------------------|----------------------------------|
-----------------------|------------------|----------3---------------3-3-5---|
--3--3------3----------|------------------|--5-5-5-5---5-5-4-4-4-4-4-------4-|


                                                                               
------------------|----------------------------------|------------------------|
------------------|----------------------------------|------------------------|
------------------|----------------------------------|------------------------|
------------------|----------------------------------|-------3-5-----------0--|
------------------|----------3---------------3-3-5---|-------3--------3--1-1--|
------------------|--5-5-5-5---5-5-4-4-4-4-4-------4-|----3------3-4--4-------|


                                                                          
------------------------|------------------------|-----------------------|
------------------------|------------------------|-----------------------|
------------------------|------------------------|-----------------------|
-------3-5-----------0--|-------3-5-----------0--|--------3-5------------|
----------------3--1----|----------------3--1----|-----------------------|
----3------3-4----------|----3------3-4----------|--3--3------3----------|


                                                     
-----------------------|----------------------------|
-----------------------|----------------------------|
-----------------------|----------------------------|
-----------------------|----------------------------|
-----------------------|---------3------------3--5--|
--17/-0------------17/-|--5--5-5---5--4--4--4-------|


                                                                                
--------------------------------|----------------------------|-----------------|
--------------------------------|----------------------------|-----------------|
--------------------------------|----------------------------|-----------------|
--------------------------------|----------------------------|-----------------|
--5--6-7-7-8--9--10-11-12-12/---|--0------3------------3--5--|--3--------------|
--------------------------------|-----5-5---5--4--4--4-------|-----------------|


                                                      
----------------|----------------|--------------4/---|
----------------|----------------|-------------------|
----------------|----------------|-------------------|
----------------|----------------|-------------------|
----------------|----------------|-------------------|
----------------|----------------|-------------------|


                                                                                
--20-20-20-20-20-20-20-20-20-20-20-20-20-20-20-20-20-20-20-20-20-20-20-20-20-20-
--------------------------------------------------------------------------------
--------------------------------------------------------------------------------
--------------------------------------------------------------------------------
--------------------------------------------------------------------------------
--------------------------------------------------------------------------------


                                                                                
--20-20-20-20-20-20-20-20-20-20-20-20-20-20-20-20-20-20-20-20-20-20-20-20-20-20-
--------------------------------------------------------------------------------
--------------------------------------------------------------------------------
--------------------------------------------------------------------------------
--------------------------------------------------------------------------------
--------------------------------------------------------------------------------


                                         
--20-----20-----20-----20-----20-----20-|
------------22b-----------22b-----------|
-----22b-----------22b-----------22b----|
----------------------------------------|
----------------------------------------|
----------------------------------------|


                                                                            
------20-----20-----20-19-20-19-20-19-20--|--------------------------------|
--22b-----------22b-----------------------|--8-10-10r-10r-8h0-9-11-11r-9h0-|
---------22b------------------------------|--------------------------------|
------------------------------------------|--------------------------------|
------------------------------------------|--------------------------------|
------------------------------------------|--------------------------------|


                                                                 
-------------------------------|--------------------------------|
--8-10-10r-10r-8h0-7-9-5-7-3h0-|--8-10-10r-10r-8h0-9-11-11r-9h0-|
-------------------------------|--------------------------------|
-------------------------------|--------------------------------|
-------------------------------|--------------------------------|
-------------------------------|--------------------------------|


                                                                        
--------------------------------|-------------------|------------------|
--8-10-10r-10r-8h0-10-9--8--7/--|--1----------------|------------------|
--------------------------------|--2----------------|------------------|
--------------------------------|--3----------------|------------------|
--------------------------------|--0----------------|------------------|
--------------------------------|-------------------|------------------|


                                                               
--------------------|--------------------|--------------------|
--------------------|--------------------|--------------------|
--5--------4--------|--3--------2--------|--7--------2--------|
--------------------|--------------------|--------------------|
--3--------2--------|--1--------0--------|--5--------0--------|
--------------------|--------------------|--------------------|


                                                               
--------------------|--------------------|--------------------|
--------------------|--------------------|--------------------|
--7--------5--------|--3--------2--------|--------------------|
--------------------|--------------------|--5--------3--------|
--5--------3--------|--1--------0--------|--------------------|
--------------------|--------------------|--3--------1--------|


                                                             
-------------------|-------------------|--------------------|
-------------------|-------------------|--------------------|
-------------------|-------------------|--5--------4--------|
--2----------------|--7----------------|--------------------|
-------------------|-------------------|--3--------2--------|
--0----------------|--5----------------|--------------------|


                                                               
--------------------|--------------------|--------------------|
--------------------|--------------------|--------------------|
--3--------2--------|--7--------2--------|--7--------9--------|
--------------------|--------------------|--------------------|
--1--------0--------|--5--------0--------|--5--------3--------|
--------------------|--------------------|--------------------|


                                                                  
----------------------|----------------------|-------------------|
----------------------|----------------------|-------------------|
--10--------10--------|--10--------10--------|--9----------------|
----------------------|----------------------|-------------------|
--1---------0---------|----------------------|-------------------|
----------------------|--3---------1---------|--0----------------|


                                                              
-------------------|--------------------|--------------------|
-------------------|--------------------|--------------------|
--9----------------|--5--------4--------|--3--------2--------|
-------------------|--------------------|--------------------|
-------------------|--3--------2--------|--1--------0--------|
--5----------------|--------------------|--------------------|


                                                                   
--------------------|--------------------|------------------------|
--------------------|--------------------|------------------------|
--7--------2--------|--7--------9--------|--10--------10----12----|
--------------------|--------------------|------------------------|
--5--------0--------|--5--------3--------|--1---------0-----------|
--------------------|--------------------|------------------------|


                                                                 
------------------------|-------------------|-------------------|
--11--------10----------|-------------------|-------------------|
--10--------------10----|--9----------------|--9----------------|
------------------------|-------------------|-------------------|
------------------------|-------------------|-------------------|
--3---------1-----------|--0----------------|--5----------------|


                                                               
--------------------|--------------------|--------------------|
--------------------|--------------------|--------------------|
--5--------4--------|--3--------2--------|--7--------2--------|
--------------------|--------------------|--------------------|
--3--------2--------|--1--------0--------|--5--------0--------|
--------------------|--------------------|--------------------|


                                                                       
--------------------|------------------------|------------------------|
--------------------|------------------------|--11--------10----------|
--7--------9--------|--10--------10----12----|--10--------------10----|
--------------------|------------------------|------------------------|
--5--------3--------|--1---------0-----------|------------------------|
--------------------|------------------------|--3---------1-----------|


                                                            
-------------------|------------------|--------------------|
-------------------|------------------|--------------------|
--9----------------|------------------|--------------------|
-------------------|------------------|--------------------|
-------------------|------------------|--------------------|
--0----------------|------------------|----------------17/-|


                                                              
----------------------------|--------------------------------|
----------------------------|--------------------------------|
----------------------------|--------------------------------|
----------------------------|--------------------------------|
---------3------------3--5--|--5--6-7-7-8--9--10-11-12-12/---|
--5--5-5---5--4--4--4-------|--------------------------------|


                                                       
----------------------------|--10---------------------|
----------------------------|-----------10------------|
----------------------------|-----8~-----------10-----|
----------------------------|--------------8----------|
---------3------------3--5--|---------------------8---|
--5--5-5---5--4--4--4-------|-------------------------|


                                                    
--10---------------------|--10---------------------|
-----------10------------|-----------10------------|
-----8~-----------10-----|-----8b-----------10-----|
--------------8----------|--------------8----------|
---------------------8---|---------------------8---|
-------------------------|-------------------------|


                              
--10-------------------------|
-------------13-12--11--10---|
-----8b------15b14b-13b-12b--|
-----------------------------|
-----------------------------|
-----------------------------|



-------------------------------------------------------------------------------
13-13-13-13-13-13-16-16-16-16-16-16-14-14-14-14-13-13-13-13-13-13-6-6-6-6-6----
15b15b15b15b15b15b18b18b18b18b18b18b16b16b16b16b15b15b15b15b15b15b8b8b8b8b8b8b-
-------------------------------------------------------------------------------
-------------------------------------------------------------------------------
-------------------------------------------------------------------------------


                                          
-----------------------------------------|
--13-13-15--15-15--15-15--15-15--15-15---|
--15b15b17b-17-17b-17-17b-17-17b-17-17b--|
-----------------------------------------|
-----------------------------------------|
-----------------------------------------|


                                                                                
--------------------------------------------------------------------------------
--13-13-13-13-13-13-16-16-16-16-16-16-14-14-14-14-13-13-13-13-13-13-4-4-4-4-4-4-
--15b15b15b15b15b15b18b18b18b18b18b18b16b16b16b16b15b15b15b15b15b15b6b6b6b6b6b6b
--------------------------------------------------------------------------------
--------------------------------------------------------------------------------
--------------------------------------------------------------------------------


                                                                        
-----------------------------------------|-----------------------------|
--13-13-15--15-16--17-17--18-18--20-20---|--10--8-8--------10-0--------|
--15b15b17b-17-18b-19-19b-20-20b-22-22b--|----------------------10r--8-|
-----------------------------------------|------------8-10-------------|
-----------------------------------------|-----------------------------|
-----------------------------------------|-----------------------------|


                                                            
-----------------10-0-10r--8-|-----------------------------|
--10--8-8--------------------|--10--8-8--------10-0--------|
------------8-10-------------|----------------------10r--8-|
-----------------------------|------------8-10-------------|
-----------------------------|-----------------------------|
-----------------------------|-----------------------------|


                            
--------------------------||
--10--8-8-----------------||
--------------9-8--7--5---||
--------------------------||
--------------------------||
--------------------------||








//////////////////////////////////////////////////////////////////////////////////
                               Paranoid Android                                 


                                                                       Radiohead
Lead 2 (ed)


                                                                         
------------------|-------0~----------0~-----|-------0~----------0~-----|
------------------|-----3~---3~-----3~---3~--|-----3~---3~-----3~---3~--|
------------------|--3~----------3~----------|--2~----------2~----------|
------------------|--------------------------|--------------------------|
------------------|--------------------------|--------------------------|
------------------|--------------------------|--------------------------|


                                                      
-------0~----------0~-----|-------0~----------0~-----|
-----3~---3~-----3~---3~--|-----3~---3~-----3~---3~--|
--1~----------1~----------|--3~----------3~----------|
--------------------------|--------------------------|
--------------------------|--------------------------|
--------------------------|--------------------------|


                                                      
-------0~----------0~-----|-------0~----------0~-----|
-----3~---3~-----3~---3~--|-----3~---3~-----3~---3~--|
--2~----------2~----------|--1~----------1~----------|
--------------------------|--------------------------|
--------------------------|--------------------------|
--------------------------|--------------------------|


                                                                 
-------0~----------0~-----|------------------|------------------|
-----3~---3~-----3~---3~--|------------------|------------------|
--1~----------1~----------|------------------|------------------|
--------------------------|------------------|------------------|
--------------------------|------------------|------------------|
--------------------------|------------------|------------------|



                                                      
-------0~----------0~-----|-------0~----------0~-----|
-----3~---3~-----3~---3~--|-----3~---3~-----3~---3~--|
--3~----------3~----------|--2~----------2~----------|
--------------------------|--------------------------|
--------------------------|--------------------------|
--------------------------|--------------------------|


                                                      
-------0~----------0~-----|-------0~----------0~-----|
-----3~---3~-----3~---3~--|-----3~---3~-----3~---3~--|
--1~----------1~----------|--3~----------3~----------|
--------------------------|--------------------------|
--------------------------|--------------------------|
--------------------------|--------------------------|


                                                      
-------0~----------0~-----|-------0~----------0~-----|
-----3~---3~-----3~---3~--|-----3~---3~-----3~---3~--|
--2~----------2~----------|--1~----------1~----------|
--------------------------|--------------------------|
--------------------------|--------------------------|
--------------------------|--------------------------|


                                                                  
-------0~----------0~-----|-------------------|------------------|
-----3~---3~-----3~---3~--|-------------------|------------------|
--1~----------1~----------|--2~---------------|------------------|
--------------------------|-------------------|------------------|
--------------------------|-------------------|------------------|
--------------------------|-------------------|---------

                                                                         
-------------------|------------------|----------------|----------------|
-------------------|------------------|----------------|----------------|
--2~---------------|------------------|----------------|----------------|
-------------------|------------------|----------------|----------------|
-------------------|------------------|----------------|----------------|
-------------------|------------------|----------------|----------------|


                                                            
----------------|------------------|-----------------------|
----------------|------------------|-----------------------|
----------------|------------------|-----------------------|
----------------|------------------|-----------------------|
----------------|------------------|-----------------------|
----------------|------------------|--17/-0------------17/-|


                                                                              
----------------------------|-------------------|---------------------------
----------------------------|-------------------|---------------------------
----------------------------|-------------------|---------------------------
----------------------------|-------------------|---------------------------
---------3------------3--5--|--5b---------------|---------3------------3--5
--5--5-5---5--4--4--4-------|-------------------|--5--5-5---5--4--4--4-----


                                                                     
----------------------|----------------------|----------------------|
-------5~-------------|-------5~-------------|-------5~-------------|
-------5~------7--10/-|-------5~------7--10/-|-------5~------7--10/-|
-------5~--6---8--10/-|-------5~--6---8--10/-|-------5~--6---8--10/-|
--3--------6---8--8/--|--3--------6---8--8/--|--3--------6---8--8/--|
-----------4---6------|-----------4---6------|-----------4---6------|


                                                                           
------------------------|----------------------------|--------------------|
-------5~---------------|----------------------------|--------------------|
-------5~---------------|----------------------------|--------------------|
-------5~---------------|----------------------------|--------------------|
--3---------------------|---------3------------3--5~-|--------------------|
------------8-7--6/--0--|--5--5-5---5--4--4--4-------|----------------17/-|


                                                                        
----------------------------|-------------------|----------------------|
----------------------------|-------------------|-------5~-------------|
----------------------------|-------------------|-------5~------7--10--|
----------------------------|-------------------|-------5~--6---8--10/-|
---------3------------3--5~-|----------------7/-|--3--------6---8--8/--|
--5--5-5---5--4--4--4-------|-------------------|-----------4---6------|


                                                                       
----------------------|----------------------|------------------------|
-------5~-------------|-------5~-------------|-------5~---------------|
-------5~------7--10--|-------5~------7--10--|-------5~---------------|
-------5~--6---8--10/-|-------5~--6---8--10/-|-------5~---------------|
--3--------6---8--8/--|--3--------6---8--8/--|--3---------------------|
-----------4---6------|-----------4---6------|------------8-7--6/--0--|


                                                                             
-------------------|------------------|------------------|------------------
--1----------------|------------------|------------------|------------------
--2----------------|------------------|------------------|------------------
--3----------------|------------------|------------------|------------------
--0----------------|------------------|------------------|------------------
-------------------|------------------|------------------|------------------
                                                                       
----------------------------|------------------|----------------------------
----------------------------|------------------|----------------------------
---------5------------5--7b-|------------------|---------5------------5--7--
--7--7-7---7--6--6--6-------|------------------|--7--7-7---7--6--6--6-------
--0--0-0--------------------|------------------|--0--0-0--------------------
----------------------------|------------------|----------------------------
                                                                  
----------------------|----------------------|----------------------|
-------5~-------------|-------5~-------------|-------5~-------------|
-------5~------7--10--|-------5~------7--10--|-------5~------7--10--|
-------5~--6---8--10/-|-------5~--6---8--10/-|-------5~--6---8--10/-|
--3--------6---8--8/--|--3--------6---8--8/--|--3--------6---8--8/--|
-----------4---6------|-----------4---6------|-----------4---6------|


                                                                           
------------------------|----------------------------|--------------------|
-------5~---------------|----------------------------|--------------------|
-------5~---------------|----------------------------|--------------------|
-------5~---------------|----------------------------|--------------------|
--3---------------------|---------3------------3--5~-|--------------------|
------------8-7--6/--0--|--5--5-5---5--4--4--4-------|----------------17/-|


                                                                        
----------------------------|-------------------|----------------------|
----------------------------|-------------------|-------5~-------------|
----------------------------|-------------------|-------5~------7--10--|
----------------------------|-------------------|-------5~--6---8--10/-|
---------3------------3--5~-|----------------7/-|--3--------6---8--8/--|
--5--5-5---5--4--4--4-------|-------------------|-----------4---6------|


                                                                        
----------------------|----------------------|------------------------||
-------5~-------------|-------5~-------------|-------5~---------------||
-------5~------7--10--|-------5~------7--10--|-------5~---------------||
-------5~--6---8--10/-|-------5~--6---8--10/-|-------5~---------------||
--3--------6---8--8/--|--3--------6---8--8/--|--3---------------------||
-----------4---6------|-----------4---6------|------------8-7--6--5---||
comments
print report bad tab
3 comments total.
0 reply
guywithguitar wrote on October 31 2003, 12:00 am

How do you do this?

----------------------|----------------------|-------------------|
----------------------|----------------------|-------------------|
--10--------10--------|--10--------10--------|--9----------------|
----------------------|----------------------|-------------------|
--1---------0---------|----------------------|-------------------|
----------------------|--3---------1---------|--0----------------|

0 reply
xxxdarkcrowxxx wrote on November 22 2003, 12:00 am

That part is actually played with a keybord.

0 reply
diarmuid5 wrote on March 12 2006, 02:29 pm

ye how?

I want to post or [tab]
guest
You may want to rate the tab now too:
select rating
Please do not post tabs as comments. Select "correction" instead!