Oops, an error
Loading. Please wait.

Street Spirit Tab

ver1
ver1

Whole song

More versions @911Tabs.com
418,804 views 1,687 this week
36 commentsread comments
1 2 3 4 5
excellent!
x 206
Autoscroll
+/-
esc
set tempo
stop
Contributor
WARNING: You are trying to view
                                    content from Ultimate-Guitar.com
                                    in an unauthorized application,
                                    which is prohibited.

                                    Please use an official Ultimate
                                    Guitar Tabs application for iPhone,
                                    iPad or Android to access legitimate
                                    chords, guitar, bass, and drum tabs
                                    from Ultimate-Guitar.com database.

                                    Type "ultimate guitar tabs" in Apple
                                    App Store's or Android Market's
                                    search to find the application.
----------------------------------------------------------------------
			    Street Spirit - Radiohead
----------------------------------------------------------------------

By: Paul Goulding
Album: The Bends
The hardest part is the alternate picking.
Once you've got that its pretty simple. 

Pretty sure its 100%

All the bars are based on chords so i have included the chord
shapes above the main riffs.

Intro/Main Riff	 	Am			(X4)
e|---------0--------------0-------------0----------------------|
B|---------------3--------------1---------------0--------------|
G|------------2------2------2-------2-------2-------2--------2-|
D|-----2------------------------------------------------2------|
A|-0-----------------------------------------------------------|
E|-------------------------------------------------------------|

Verse	
    Am		             (X4)     Em		        (X2)
e|----0-------0-------0------------|-----0-------0-------0-----------|
B|--------3-------1-------0--------|---------3-------1-------0-------|
G|------2---2---2---2---2---2---2--|-------0---0---0---0---0---0---0-|
D|---2------------------------2----|-----------------------------2---|
A|-0-------------------------------|---2-----------------------------|
E|---------------------------------|-0-------------------------------|

Verse (Continued)
	                       (X2)
e|----0-------0-------0------------|The order of the verse bars has  
B|--------3-------1-------0--------|lots of repeats in it and is hard
G|------2---2---2---2---2---2---2--|to tab. So listen to the CD to get
D|---2------------------------2----|an idea of how its supposed to go.
A|-0-------------------------------|
E|---------------------------------|

Chorus   C				Em
e|-----0-------0-------0-----------|----0-------0-------0------------|
B|---------3-------1-------0-------|--------3-------1-------0-----0--|
G|---0---0---0---0---0---0---0---0-|------0---0---0---0---0---0------|
D|-----------------------------2---|---2------------------------2----|
A|-3-------------------------------|---------------------------------|
E|---------------------------------|-0-------------------------------|

Chorus (continued) 
   Am                        (X2)      C
e|-----0-------0-------0-----------|---- 0-------0-------0-----------|
B|---------3-------1-------0-----0-|---------3-------1-------0-------|
G|-------2---2---2---2---2---2-----|---0---0---0---0---0---0---0---0-|
D|---2-------------------------2---|-----------------------------2---|
A|-0-------------------------------|-3-------------------------------|
E|---------------------------------|---------------------------------|

Chorus (continued)
  Em
e|-----0-------0-------0------------|
B|---------3-------1-------0------0-|
G|-------0---0---0---0---0---0------|
D|---2--------------------------2---|
A|----------------------------------|
E|-0--------------------------------|

Outro
   G6					E
e|---0---------0--------0-----------|-----0-------0-------0----------|
B|--------3---------1-------0-------|---------3-------1-------0-----0|
G|-0---0----0----0----0---0---0---0-|---------------------------1----|
D|------------------------------0---|---2---2---2---2---2---2-----2--|
A|----------------------------------|--------------------------------|
E|3---------------------------------|-0------------------------------|

   Am					
e|---0-------0-------0--------------|-----0-------0-------0----------|
B|-------3-------1---------0--------|---------3-------1-------0------|
G|-----2---2---2---2---2------2---2-|-------2---2---2---2---2---2---0|
D|--2---------------------------2---|---2-------------------------2--|
A|0---------------------------------|-0------------------------------|
E|----------------------------------|--------------------------------|

   G6					E
e|-----0-------0-------0-----------|-----0-------0-------0-----------|
B|---------3-------1-------0-------|---------3-------1-------0-----0-|
G|-------0---0---0---0---0---0---0-|-------1-------------------1-----|
D|-----------------------------0---|---2-------2---2---2---2-----2---|
A|---0-----------------------------|---------------------------------|
E|-3-------------------------------|-0-------------------------------|

   Am
e|------0-------0-------0-----------|----|
B|----------3-------1-------0-------|----|
G|--------2---2---2---2---2---2---2-|----|End on A
D|---2--------------------------2---|----|
A|-0--------------------------------|-0--|
E|----------------------------------|----|
Don't forget to slow down in this last bar, once you're in a rhythm
its hard to stop!

Enjoy, Paul G
36 comments total. Showing first comments. show 2 bad comments
+9 reply
Paul Goulding wrote on December 11 2002, 12:00 am

Well spank my arse and call me Roger Esquire the 2nd this is fantastic

I want to post or [tab]
guest
You may want to rate the tab now too:
select rating
Please do not post tabs as comments. Select "correction" instead!