Oops, an error
Loading. Please wait.

Down Rodeo Tab

ver4
ver4

Whole song

More versions @911Tabs.com
495 views 1 this week
no commentswrite comment
1 2 3 4 5
please rate
Autoscroll
+/-
esc
set tempo
stop
Contributor
WARNING: You are trying to view
                                    content from Ultimate-Guitar.com
                                    in an unauthorized application,
                                    which is prohibited.

                                    Please use an official Ultimate
                                    Guitar Tabs application for iPhone,
                                    iPad or Android to access legitimate
                                    chords, guitar, bass, and drum tabs
                                    from Ultimate-Guitar.com database.

                                    Type "ultimate guitar tabs" in Apple
                                    App Store's or Android Market's
                                    search to find the application.
#----------------------------------PLEASE NOTE---------------------------------#
#This file is the author's own work and represents their interpretation of the #
#song. You may only use this file for private study, scholarship, or research. #
#------------------------------------------------------------------------------#

DOWN RODEO
As recorded by Rage Against the Machine
(From the 1996 Album EVIL EMPIRE)

Transcribed by PeLiLaMaN
        

Words by Zack de la Rocha Music by Rage Against the Machine

Gtr I (E A D G B E) - 'Guitar'
Gtr II (E A D G B E) - 'Guitar +1 Octave'
Gtr III (E A D G B E) - 'Guitar -1 Octave'

  Q=86
 4/4
  Gtrs I, II, III
   S  S  S  S  S  S  S  S  S  S  S  S  S  S  S  S
|--9--9--9--9--9--9--9--9--9--9--9--9--9--9--9--9-|
|--9--9--9--9--9--9--9--9--9--9--9--9--9--9--9--9-|
|-13-13-13-13-13-13-13-13-13-13-13-13-13-13-13-13-|
|-11-11-11-11-11-11-11-11-11-11-11-11-11-11-11-11-|
|--9--9--9--9--9--9--9--9--9--9--9--9--9--9--9--9-|
|--9--9--9--9--9--9--9--9--9--9--9--9--9--9--9--9-|


   S  S  S  S  S  S  S  S  S  S  S  S  S  S  S  S
|--9--9--9--9--9--9--9--9--9--9--9--9--9--9--9--9--|
|--9--9--9--9--9--9--9--9--9--9--9--9--9--9--9--9--|
|-13-13-13-13-13-13-13-13-13-13-13-13-13-13-13-13--|
|-11-11-11-11-11-11-11-11-11-11-11-11-11-11-11-11--|
|--9--9--9--9--9--9--9--9--9--9--9--9--9--9--9--9--|
|--9--9--9--9--9--9--9--9--9--9--9--9--9--9--9--9--|


   S  S  S  S  S  S  S  S  S  S  S  S  S  S  S  S
|--9--9--9--9--9--9--9--9--9--9--9--9--9--9--9--9-|
|--9--9--9--9--9--9--9--9--9--9--9--9--9--9--9--9-|
|-13-13-13-13-13-13-13-13-13-13-13-13-13-13-13-13-|
|-11-11-11-11-11-11-11-11-11-11-11-11-11-11-11-11-|
|--9--9--9--9--9--9--9--9--9--9--9--9--9--9--9--9-|
|--9--9--9--9--9--9--9--9--9--9--9--9--9--9--9--9-|


   S  S  S  S  S  S  S  S  S  S  E  S E.
|--9--9--9--9--9--9--9--9--9--9--9\------|
|--9--9--9--9--9--9--9--9--9--9--9\------|
|-13-13-13-13-13-13-13-13-13-13-13S=x-4--|
|-11-11-11-11-11-11-11-11-11-11-11S=x-2--|
|--9--9--9--9--9--9--9--9--9--9--9\---0--|
|--9--9--9--9--9--9--9--9--9--9--9\---0--|


    Q    E S S S S S S S S E
||---------------------------|
||o--------------------------|
||--3b4r=====================|
||-------4-------------------|
||o--------------------------|
||---------2-0-0-2-0-2-3-2-0-|


  S S S S Q    S S E E S S  3x Q    E S S S S S S S S E
|---------------------------||--------------------------|
|--------------------------o||--------------------------|
|---------3b4r==============||=3b4r=====================|
|---------------------------||------4-------------------|
|--------------------------o||--------------------------|
|-0-2-x-x------x-x-x-x-x-x--||--------2-0-0-2-0-2-3-2-0-|


    Gtrs I, III
    E E E S S E E E S S   E E E S S E E E S S
||----------------------|---------------------|
||o---------------------|---------------------|
||----------------------|---------------------|
||----------------------|---------------------|
||o---------------------|---------------------|
||--0-2-x-x-x-0-2-x-x-x-|-0-2-x-x-x-0-2-x-x-x-|


   T  T  T  T  T  T  T  T  T  T  T  T  T  T  T  T  T  T  T  T  T  T  T  T  T  T  T  T  T  T  T  T
|-------------------------------------------------------------------------------------------------|
|-------------------------------------------------------------------------------------------------|
|-------------------------------------------------------------------------------------------------|
|-<4>---<4>---<4>---<4>---<4>---<4>---<4>---<4>---<4>---<4>---<4>---<4>---<4>---<4>---<4>---<4>---|
|-------------------------------------------------|
|-------------------------------------------------------------------------------------------------|
|
| Gtr III
|  E           E           E           S     S     E           E           E           S     S
|-------------------------------------------------------------------------------------------------|
|-------------------------------------------------------------------------------------------------|
|-------------------------------------------------------------------------------------------------|
|-------------------------------------------------------------------------<4>---------------------|
|-------------------------------------------------------------------------<4>----------x-----x----|
|--0-----------2-----------x-----------x-----x-----0-----------2----------------------------------|


   T  T  T  T  T  T  T  T  T  T  T  T  T  T  T  T  T  T  T  T  T  T  T  T  T  T  T  T  T  T  T  T
|--------------------------------------------------------------------------------------------------||
|-------------------------------------------------------------------------------------------------o||
|--------------------------------------------------------------------------------------------------||
|-<4>---<4>---<4>---<4>---<4>---<4>---<4>---<4>---<4>---<4>---<4>---<4>---<4>---<4>---<4>---<4>----||
|-------------------------------------------------o||
|--------------------------------------------------------------------------------------------------||
|
|  E           E           E           S     S     E           E           E           S     S
|--------------------------------------------------------------------------------------------------||
|-------------------------------------------------------------------------------------------------o||
|--------------------------------------------------------------------------------------------------||
|-------------------------------------------------------------------------<4>----------------------||
|-------------------------------------------------------------------------<4>----------x-----x----o||
|--0-----------2-----------x-----------x-----x-----0-----------2-----------------------------------||


                    2/4      4/4
  Gtrs I, III                 Gtr I
  E E E S S E E Q    W         Q   Q   Q   Q
|------------------|------||------------------|
|------------------|------||o-----------------|
|------------------|------||------------------|
|------------------|------||--14--16----------|
|------------------|------||o---------14--16--|
|-0-2-x-x-x-0-2----|------||------------------|


   Q   Q   Q   Q     Q   Q   Q   Q     Q   Q   Q   Q    4x
|-----------------|-----------------|-------------------||
|-----------------|-----------------|------------------o||
|-----------------|-----------------|-------------------||
|-14--16----------|-14--16----------|-14--16------------||
|---------14--16--|---------14--16--|---------14--16---o||
|-----------------|-----------------|-------------------||


  Gtrs I, III
   S  S  S  S  S  S  S  S  S  S  S  S  S  S  S  S
|--9--9--9--9--9--9--9--9--9--9--9--9--9--9--9--9-|
|--9--9--9--9--9--9--9--9--9--9--9--9--9--9--9--9-|
|-13-13-13-13-13-13-13-13-13-13-13-13-13-13-13-13-|
|-11-11-11-11-11-11-11-11-11-11-11-11-11-11-11-11-|
|--9--9--9--9--9--9--9--9--9--9--9--9--9--9--9--9-|
|--9--9--9--9--9--9--9--9--9--9--9--9--9--9--9--9-|


   S  S  S  S  S  S  S  S  S  S  E S E.
|--9--9--9--9--9--9--9--9--9--9--9------|
|--9--9--9--9--9--9--9--9--9--9--9------|
|-13-13-13-13-13-13-13-13-13-13-13-x-4--|
|-11-11-11-11-11-11-11-11-11-11-11-x-2--|
|--9--9--9--9--9--9--9--9--9--9--9---0--|
|--9--9--9--9--9--9--9--9--9--9--9---0--|


    Gtrs I, II, III
    Q    E S S S S S S S S E
||---------------------------|
||o--------------------------|
||--3b4r=====================|
||-------4-------------------|
||o--------------------------|
||---------2-0-0-2-0-2-3-2-0-|


  S S S S Q    S S E E S S  3x Q    E S S S S S S S S E
|---------------------------||--------------------------|
|--------------------------o||--------------------------|
|---------3b4r==============||=3b4r=====================|
|---------------------------||------4-------------------|
|--------------------------o||--------------------------|
|-0-2-x-x------x-x-x-x-x-x--||--------2-0-0-2-0-2-3-2-0-|


    Gtrs I, III
    E E E S S E E E S S   E E E S S E E E S S
||----------------------|---------------------|
||o---------------------|---------------------|
||----------------------|---------------------|
||----------------------|---------------------|
||o---------------------|---------------------|
||--0-2-x-x-x-0-2-x-x-x-|-0-2-x-x-x-0-2-x-x-x-|


   T  T  T  T  T  T  T  T  T  T  T  T  T  T  T  T  T  T  T  T  T  T  T  T  T  T  T  T  T  T  T  T
|-------------------------------------------------------------------------------------------------|
|-------------------------------------------------------------------------------------------------|
|-------------------------------------------------------------------------------------------------|
|-<4>---<4>---<4>---<4>---<4>---<4>---<4>---<4>---<4>---<4>---<4>---<4>---<4>---<4>---<4>---<4>---|
|-------------------------------------------------|
|-------------------------------------------------------------------------------------------------|
|
| Gtr III
|  E           E           E           S     S     E           E           E           S     S
|-------------------------------------------------------------------------------------------------|
|-------------------------------------------------------------------------------------------------|
|-------------------------------------------------------------------------------------------------|
|-------------------------------------------------------------------------<4>---------------------|
|-------------------------------------------------------------------------<4>----------x-----x----|
|--0-----------2-----------x-----------x-----x-----0-----------2----------------------------------|


   T  T  T  T  T  T  T  T  T  T  T  T  T  T  T  T  T  T  T  T  T  T  T  T  T  T  T  T  T  T  T  T
|--------------------------------------------------------------------------------------------------||
|-------------------------------------------------------------------------------------------------o||
|--------------------------------------------------------------------------------------------------||
|-<4>---<4>---<4>---<4>---<4>---<4>---<4>---<4>---<4>---<4>---<4>---<4>---<4>---<4>---<4>---<4>----||
|-------------------------------------------------o||
|--------------------------------------------------------------------------------------------------||
|
|  E           E           E           S     S     E           E           E           S     S
|--------------------------------------------------------------------------------------------------||
|-------------------------------------------------------------------------------------------------o||
|--------------------------------------------------------------------------------------------------||
|-------------------------------------------------------------------------<4>----------------------||
|-------------------------------------------------------------------------<4>----------x-----x----o||
|--0-----------2-----------x-----------x-----x-----0-----------2-----------------------------------||


                    2/4    4/4
  Gtrs I, III               Gtrs I, II, III
  E E E S S E E Q    W       E S  E S  E S  E S  E  E
|------------------|------|---------------------------|
|------------------|------|---------------------------|
|------------------|------|---------------------------|
|------------------|------|---------------------------|
|------------------|------|---------------------------|
|-0-2-x-x-x-0-2----|------|-14---12---14---12---14-12-|


   E S  E S  E S  E S  E  E    E S  E S  E S  E S  E  E
|---------------------------|---------------------------|
|---------------------------|---------------------------|
|---------------------------|---------------------------|
|---------------------------|---------------------------|
|-----------14--------------|-14---12---14---12---14----|
|-14---12--------12---14-10-|-14---12---14---12---14-12-|


   T T  T T  T T  T T  T T  T T  T T  T T  T T  T T  T T  T T  T T  T T  T T  T T
|---------------------------------------------------------------------------------|
|---------------------------------------------------------------------------------|
|--x----x----x----x----x----x----x----x----x----x----x----x----x----x----x----x---|
|--x----x----x----x----x----x----x----x----x----x----x----x----x----x----x----x---|
|--x----x----x----x----x----x----x----x----x----x----x----x----x----x----x----x---|
|-12---12---12---12---12---12---12---12---12---12---12---12---12---12---12---12---|


   S  S  S  S  +E   S  S  S  E  S  E  E
|-----------------------------------------|
|-----------------------------------------|
|--x--x--x--x-------x--x--x--x--x--x--x---|
|--x--x--x--x-------x--x--x--x--x--x--x---|
|--x--x--x--x-------x--x--x--x--x--x--x---|
|-14-14-14-12-(12)-12-14-14-14-12-14-12---|


   S  S  S  S  +E   S  S  S  E  S  E  E
|---------------------------------------|
|---------------------------------------|
|--x--x--x--x-------x--x--x--x--x--x--x-|
|--x--x--x--x-------x--x--x--x--x--x--x-|
|--x--x--x--x-------x--x--x--x--x--x--x-|
|-14-14-14-12-(12)-12-14-14-14-12-14-12-|


   S  S  S  S  +E   S  S  S  E  S  E  E
|---------------------------------------|
|---------------------------------------|
|--x--x--x--x-------x--x--x--x--x--x--x-|
|--x--x--x--x-------x--x--x--x--x--x--x-|
|--x--x--x--x-------x--x--x--x--x--x--x-|
|-14-14-14-12-(12)-12-14-14-14-12-14-12-|


   T T  T T  T T  T T  T T  T T  T T  T T  T T  T T  T T  T T  T T  T T  T T  T T
|---------------------------------------------------------------------------------|
|---------------------------------------------------------------------------------|
|--x----x----x----x----x----x----x----x----x----x----x----x----x----x----x----x---|
|--x----x----x----x----x----x----x----x----x----x----x----x----x----x----x----x---|
|--x----x----x----x----x----x----x----x----x----x----x----x----x----x----x----x---|
|-12---12---12---12---12---12---12---12---12---12---12---12---12---12---12---12---|


    Gtr I
     Q   Q   Q   Q     Q   Q   Q   Q     Q   Q   Q   Q     Q   Q   Q   Q
||------------------|-----------------|-----------------|-------------------||
||o-----------------|-----------------|-----------------|------------------o||
||------------------|-----------------|-----------------|-------------------||
||--14--16----------|-14--16----------|-14--16----------|-14--16------------||
||o---------14--16--|---------14--16--|---------14--16--|---------14--16---o||
||------------------|-----------------|-----------------|-------------------||


  Gtrs I, III
   S  S  S  S  S  S  S  S  S  S  S  S  S  S  S  S
|--9--9--9--9--9--9--9--9--9--9--9--9--9--9--9--9-|
|--9--9--9--9--9--9--9--9--9--9--9--9--9--9--9--9-|
|-13-13-13-13-13-13-13-13-13-13-13-13-13-13-13-13-|
|-11-11-11-11-11-11-11-11-11-11-11-11-11-11-11-11-|
|--9--9--9--9--9--9--9--9--9--9--9--9--9--9--9--9-|
|--9--9--9--9--9--9--9--9--9--9--9--9--9--9--9--9-|


   S  S  S  S  S  S  S  S  S  S  E S E.
|--9--9--9--9--9--9--9--9--9--9--9------|
|--9--9--9--9--9--9--9--9--9--9--9------|
|-13-13-13-13-13-13-13-13-13-13-13-x-4--|
|-11-11-11-11-11-11-11-11-11-11-11-x-2--|
|--9--9--9--9--9--9--9--9--9--9--9---0--|
|--9--9--9--9--9--9--9--9--9--9--9---0--|


    Gtrs I, II, III
    Q    E S S S S S S S S E
||---------------------------|
||o--------------------------|
||--3b4r=====================|
||-------4-------------------|
||o--------------------------|
||---------2-0-0-2-0-2-3-2-0-|


  S S S S Q    S S E E S S  3x Q    E S S S S S S S S E
|---------------------------||--------------------------|
|--------------------------o||--------------------------|
|---------3b4r==============||=3b4r=====================|
|---------------------------||------4-------------------|
|--------------------------o||--------------------------|
|-0-2-x-x------x-x-x-x-x-x--||--------2-0-0-2-0-2-3-2-0-|


    Gtrs I, III
    E E E S S E E E S S   E E E S S E E E S S
||----------------------|---------------------|
||o---------------------|---------------------|
||----------------------|---------------------|
||----------------------|---------------------|
||o---------------------|---------------------|
||--0-2-x-x-x-0-2-x-x-x-|-0-2-x-x-x-0-2-x-x-x-|


   T  T  T  T  T  T  T  T  T  T  T  T  T  T  T  T  T  T  T  T  T  T  T  T  T  T  T  T  T  T  T  T
|-------------------------------------------------------------------------------------------------|
|-------------------------------------------------------------------------------------------------|
|-------------------------------------------------------------------------------------------------|
|-<4>---<4>---<4>---<4>---<4>---<4>---<4>---<4>---<4>---<4>---<4>---<4>---<4>---<4>---<4>---<4>---|
|-------------------------------------------------|
|-------------------------------------------------------------------------------------------------|
|
| Gtr III
|  E           E           E           S     S     E           E           E           S     S
|-------------------------------------------------------------------------------------------------|
|-------------------------------------------------------------------------------------------------|
|-------------------------------------------------------------------------------------------------|
|-------------------------------------------------------------------------<4>---------------------|
|-------------------------------------------------------------------------<4>----------x-----x----|
|--0-----------2-----------x-----------x-----x-----0-----------2----------------------------------|


   T  T  T  T  T  T  T  T  T  T  T  T  T  T  T  T  T  T  T  T  T  T  T  T  T  T  T  T  T  T  T  T
|--------------------------------------------------------------------------------------------------||
|-------------------------------------------------------------------------------------------------o||
|--------------------------------------------------------------------------------------------------||
|-<4>---<4>---<4>---<4>---<4>---<4>---<4>---<4>---<4>---<4>---<4>---<4>---<4>---<4>---<4>---<4>----||
|-------------------------------------------------o||
|--------------------------------------------------------------------------------------------------||
|
|  E           E           E           S     S     E           E           E           S     S
|--------------------------------------------------------------------------------------------------||
|-------------------------------------------------------------------------------------------------o||
|--------------------------------------------------------------------------------------------------||
|-------------------------------------------------------------------------<4>----------------------||
|-------------------------------------------------------------------------<4>----------x-----x----o||
|--0-----------2-----------x-----------x-----x-----0-----------2-----------------------------------||


                Q=83
  E E E S S E E Q    Wx2          S S S S S S S S S S S S S S S S
|------------------|------------|-----------------0-0-0-0-0-0-0-0-|
|------------------|------------|-----------------3-3-3-3-3-3-3-3-|
|------------------|------------|-----------------2-2-2-2-2-2-2-2-|
|------------------|------------|-0-0-0-0-0-0-0-0-0-0-0-0-0-0-0-0-|
|------------------|------------|-----------------0-0-0-0-0-0-0-0-|
|-0-2-x-x-x-0-2----|------------|---------------------------------|
|
| E E E S S E E Q    Wx2          H               S S S S S S S S
|------------------|------------|-----------------0-0-0-0-0-0-0-0-|
|------------------|------------|-----------------3-3-3-3-3-3-3-3-|
|------------------|------------|-----------------2-2-2-2-2-2-2-2-|
|------------------|------------|-----------------0-0-0-0-0-0-0-0-|
|------------------|------------|-----------------0-0-0-0-0-0-0-0-|
|-0-2-x-x-x-0-2----|------------|---------------------------------|


    Gtrs I, II, III
    E E E E E E E E   S S S S S S S S S S S S S S S S   7x
||--0-0-0-0-0-0-0-0-|-0-0-0-0-0-0-0-0-0-0-0-0-0-0-0-0---||
||o-0-0-0-0-0-0-0-0-|-3-3-3-3-3-3-3-3-3-3-3-3-3-3-3-3--o||
||--1-1-1-1-1-1-1-1-|-2-2-2-2-2-2-2-2-2-2-2-2-2-2-2-2---||
||--2-2-2-2-2-2-2-2-|-0-0-0-0-0-0-0-0-0-0-0-0-0-0-0-0---||
||o-2-2-2-2-2-2-2-2-|-0-0-0-0-0-0-0-0-0-0-0-0-0-0-0-0--o||
||--0-0-0-0-0-0-0-0-|-----------------------------------||


    Gtr I
     S  S S S  S  S  S  S S S  S  S  S  S S S
||--------------------------------------------|
||o-------------------------------------------|
||--12-12-x-x-12-12-12-12-x-x-12-12-12-12-x-x-|
||--------------------------------------------|
||o-------------------------------------------|
||--------------------------------------------|


   S  S S S  S  S  S  S S S  S  S  S  S S S
|--------------------------------------------|
|--------------------------------------------|
|-12-12-x-x-12-12-12-12-x-x-12-12-12-12-x-x--|
|--------------------------------------------|
|--------------------------------------------|
|--------------------------------------------|


   S  S S S  S  S  S  S S S  S  S  S  S S S
|-------------------------------------------|
|-------------------------------------------|
|-12-12-x-x-12-12-12-12-x-x-12-12-12-12-x-x-|
|-------------------------------------------|
|-------------------------------------------|
|-------------------------------------------|


   S  S S S  S  S  S  S S S  S  S  S  S S S     W          +W
|--------------------------------------------||----------|--------*|
|-------------------------------------------o||----------|--------*|
|-12-12-x-x-12-12-12-12-x-x-12-12-12-12-x-x--||----------|--------*|
|--------------------------------------------||-2--------|-(2)----*|
|-------------------------------------------o||-2--------|-(2)----*|
|--------------------------------------------||-0--------|-(0)----*|



Duration Legend
---------------
W - whole; H - half; Q - quarter; E - 8th; S - 16th; T - 32nd; X - 64th; a - acciaccatura
+ - note tied to previous; . - note dotted; .. - note double dotted
Uncapitalized letters represent notes that are staccato (1/2 duration)
Irregular groupings are notated above the duration line
Duration letters will always appear directly above the note/fret number it represents the
duration for.  Duration letters with no fret number below them represent rests.  Multi-
bar rests are notated in the form Wxn, where n is the number of bars to rest for.  Low
melody durations appear below the staff

Tablature Legend
----------------
 h   - hammer-on
 p   - pull-off
 b   - bend
 pb  - pre-bend
 r   - bend release (if no number after the r, then release immediately)
 /\  - slide into or out of (from/to "nowhere")
 s   - legato slide
 S   - shift slide
 - natural harmonic
[n]  - artificial harmonic
n(n) - tapped harmonic
 ~   - vibrato
 tr  - trill
 T   - tap
 TP  - trem. picking
 PM  - palm muting
\n/  - tremolo bar dip; n = amount to dip
 \n  - tremolo bar down
 n/  - tremolo bar up
/n\  - tremolo bar inverted dip
 =   - hold bend; also acts as connecting device for hammers/pulls
 <> - volume swell (louder/softer)
 x   - on rhythm slash represents muted slash
 o   - on rhythm slash represents single note slash

Misc Legend
-----------
 |  - bar
||  - double bar
||o - repeat start
o|| - repeat end
*|  - double bar (ending)
 :  - bar (freetime)
 $  - Segno
 &  - Coda
Tempo markers -  = BPM(8/16=s8/s16), where s8 = swing 8ths, s16 = swing 16ths

comments
We did not receive enough feedback on this tab! Please rate:
print report bad tab
1 2 3 4 5
I want to post or [tab]
guest
You may want to rate the tab now too:
select rating
Please do not post tabs as comments. Select "correction" instead!