Oops, an error
Loading. Please wait.

Evil Empire Tab

24,164 views 33 this week
9 commentsread comments
1 2 3 4 5
excellent!
x 11
add to favorites launch autoscroll
font size
0
reset
Autoscroll
+/-
esc
set tempo
stop
Contributor
WARNING: You are trying to view
                                    content from Ultimate-Guitar.com
                                    in an unauthorized application,
                                    which is prohibited.

                                    Please use an official Ultimate
                                    Guitar Tabs application for iPhone,
                                    iPad or Android to access legitimate
                                    chords, guitar, bass, and drum tabs
                                    from Ultimate-Guitar.com database.

                                    Type "ultimate guitar tabs" in Apple
                                    App Store's or Android Market's
                                    search to find the application.
 

People Of The Sun
~~~~~~~~~~~~~~~~~~~~~~~~~~~~~~~~~~~~~~~~~~~~~

Verse
Use a metal pick or allen wrench. 
|---------------------------------|
|---------------------------------|
|---------------------------------|
|---------------------------------|
|-2-3-2-3-2-0---------2-3-2-3-2-0-|
|---------------------------------|

Chorus
|---------------------------------|
|---------------------------------|
|---------------------------------|
|---------------------------------|
|---------------------------------|
|-2-3-2-3-2-3-2-3-2-3-2-3-1-3-----|

Interlude
|---------------------------------|
|---------------------------------|
|---------------------0-----------|
|---------------------0-----------|
|---------------------------------|
|-5-quarter-bend-7r-5-------------|




Bulls On Parade
~~~~~~~~~~~~~~~~~~~~~~~~~~~~~~~~~~~~~~~~~~~~~

Tuning: Eb,Ab,Db,Gb,Bb,Eb

Intro/Outro Riff 1
|---------------------------------|
|---------------------------------|
|---------------------------------|
|-4-------4---4-------4---4-------|
|---------------------------------|
|---2-----------2-----------2-----|

Intro/Outro Riff 2
|---------------------------------|           
|---------------------------------|
|---------------------------------|
|---------------------------------|
|-4---4---x-x-4---4---x-x-x-x-x-x-|
|-2---2---x-x-2---2---x-x-x-x-x-x-|



Verse
|---------------------------------|---------------------------------|
|---------------------------------|---------------------------------|
|---------------------------------|---------------------------------|
|---------------------------------|---------------------------------|
|-------------0-----------2-0-----|---------------------------------|
|-0---2-----------------------0-2-|-----------------2-0-----0-1-----|



Chorus
|---------------------------------|
|---------------------------------|
|-2-------------------------------|
|---4-4-----4-----4-4-4-----4-----|
|---------x-----------------------|
|-2-2-2---x-2-----0-2-2-----2-----|


|---------------------------------|
|---------------------------------|
|-2-------------------------------|
|---4-4-----4-----4-4-4-4-4-4-----|
|---------x-----------------------|
|-2-2-2---x-2-----2-2-2-2-0-2-----|


Interlude
|---------------------------------|           
|---------------------------------|
|---------------------------------|
|-4---4---x-x-4---4---x-x-x-x-x-x-|
|-2---2---x-x-2---2---x-x-x-x-x-x-|
|---------------------------------|

For the solo, I'm not sure what setting
he has it on, you may need to fool around
with it. It's just sliding your hand up
and down the strings to create a turn table
type sound.




Vietnow
~~~~~~~~~~~~~~~~~~~~~~~~~~~~~~~~~~~~~~~~~~~~~~~~~~~~~~~~

Intro
|-------------------------------------------------|
|-------------------------------------------------|
|-------------------------------------------------|
|-------------------------------------------------|
|-4---4---7-7-----4---4---7-7---------------------|
|-2---2---5-5-----2---2---5-5---------------------|



|---------------------------------|---------------------------------|
|---------------------------------|---------------------------------|
|---------------------------------|---------------------------------|
|---------------------------------|---------------------------------|
|-4-4-4-4-4-4-4-4-4---4---7-7-----|-4---4---7-7---------------------|
|-0-2-2-0-2-2-2-2-2---2---5-5-----|-2---2---5-5---------------------|

|---------------------------------|                                          
|---------------------------------|                                          
|---------------------------------|                                          
|---------------------------------|                                          
|-4-4-4-4-4-4-4-4-4---4---7-7-----|                                          
|-0-2-2-0-2-2-2-2-2---2---5-5-----|                                          


|-------------------------------------------------|
|-------------------------------------------------|
|-------------------------------------------------|
|-------------------------------------------------|
|-4---4---7-7---feedback-w/vol.-swell-------------|
|-2---2---5-5-------------------------------------|


Chorus
|-------------------------------------------------|
|-------------------------------------------------|
|-------------------------------------------------|
|-------------------------------------------------|
|-4---4---7-7-----4---4---7-7---------------------|
|-2---2---5-5-----2---2---5-5---------------------|

                                              

|---------------------------------|---------------------------------|
|---------------------------------|---------------------------------|
|---------------------------------|---------------------------------|
|---------------------------------|---------------------------------|
|-4-4-4-4-4-4-4-4-4---4---7-7-----|-4---4---7-7---------------------|
|-0-2-2-0-2-2-2-2-2---2---5-5-----|-2---2---5-5---------------------|



1st Verse
|---------------------------------|
|---------------------------------|
|---------------------------------|
|---------------------------------|
|-4-4-4-4-4-4-4-4-----------------|
|-0-2-2-0-2-2-2-2-----------------|



Pre-chorus
|---------------------------------|
|---------------------------------|
|---------------------------------|
|-4-4-----------------------------|
|-----------------------*---------|
|-----0---2---0---5-----6r5---0---|
 * pre-bend and release


|---------------------------------|
|---------------------------------|
|---------------------------------|
|-4-4-----------------------------|
|---------------------------------|
|-----0---2---0---5-----6r5---0---|

|---------------------------------|
|---------------------------------|
|---------------------------------|
|-4-4-----------------------------|
|---------------------------------|
|-----0---2---0---5b6-----4---0---|


                              

|---------------------------------|
|---------------------------------|
|---------------------------------|
|-4-4-x-x-x-x-x-x-x-x-x-x-x-x-x-x-|
|-----x-x-x-x-x-x-x-x-x-x-x-x-x-x-|
|-----x-x-x-x-x-x-x-x-x-x-x-x-x-x-|


2nd Verse 
|---------------------------------|
|---------------------------------|
|---------------------------------|
|---------------------------------|
|-4-4-4-4-4-4-4-4-----------------|
|-0-2-2-0-2-2-2-2-----------------|




Bridge
|--gtr. 2 (right)-----------------| 
|-8---7---8---7---8---7---8---7---|
|-6---6---6---6---6---6---6---6---|
|-4---4---4---4---4---4---4---4---|
|-9-9-----------------------------|
|--gtr. 1 (left)------------------|


gtr. 1 out

play 10 times

|---------------------------------| 
|-8---7---8---7---8---7---8---7---|
|-6---6---6---6---6---6---6---6---|
|-4---4---4---4---4---4---4---4---|
|---------------------------------|
|---------------------------------|

|---------------------------------| 
|-8---7---8---7-------------------|
|-6---6---6---6-------------------|
|-4---4---4---4---4-2-4---4-2-4---|
|---------------------------------|
|---------------------------------|


                  
gtrs. 1 & 2 (w/wah).play 2 times. 

|---------------------------------| 
|---------------------------------|
|---------------------------------|
|-----4---------------------------|
|-3---------------3---------------|
|---------------------0-----------|

|---------------------------------| 
|---------------------------------|
|---------------------------------|
|-----4---------------------------|
|-----------------3---------------|
|---------------------0-----------|

|---------------------------------| 
|---------------------------------|
|---------------------------------|
|-----4---------------------------|
|-----------------3---------------|
|---------------------0-----------|

|---------------------------------| 
|---------------------------------|
|---------------------------------|
|-----4-----------4-2-4---4-2-4---|
|---------------------------------|
|---------------------------------|



Interlude
|-------------------------------------------------|
|-------------------------------------------------|
|-------------------------4-/-6-------------------|
|-------------------------------------------------|
|-4---4---7-7-----4---4---2-/-4-------------------|
|-2---2---5-5-----2---2---------------------------|



play 3 times
|---------------------------------|---------------------------------|
|---------------------------------|---------------------------------|
|---------------------------------|---------4-/-6-------------------|
|---------------------------------|----------------------3rd time---|
|-4-4-4-4-4-4-4-4-4---4---7-7-----|-4---4---2-/-4------------5------|
|-0-2-2-0-2-2-2-2-2---2---5-5-----|-2---2--------------------3------|


|-----------------|                 
|-----------------|                 
|-----------------|                
|-----------------|                 
|--4-------5------|                 
|--2-------3------|                 



Outro
|---------------------------------|
|---------------------------------|
|---------------------------------|
|---------------------------------|
|-4-4-4-4-4-4-4-4---x-x---x---x---|
|-0-2-2-0-2-2-2-2---x-x---x---x---|


gtr. 2        

|---------------------------------|
|---------------------------------|
|-------15------------------------|
|-------tr14----------------------|
|-------13tr----------------------|
|---------12----------------------|
|                                 |
|                                 |
| gtr. 1                          |
|---------------------------------|
|---------------------------------|
|---------------------------------|
|---------------------------------|
|-4-4-4-4-4-4-4-4---x-x---x---x---|
|-0-2-2-0-2-2-2-2---x-x---x---x---|


play 3 times

|---------------------------------|
|---------------------------------|
|---------------------------------|
|-(14)----------------------------|
|--tr----------------(continue)---|
|-(12)----------------------------|
|                                 |
|                                 |
|                                 |
|---------------------------------|
|---------------------------------|
|---------------------------------|
|---------------------------------|
|-4-4-4-4-4-4-4-4---x-x---x---x---|
|-0-2-2-0-2-2-2-2---x-x---x---x---|


|---------------------------------|
|---------------------------------|
|---------------------------------|
|---------------------------------|
|-4-4-4-4--5-------4-------5------|
|-0-2-2-0--3-------2-------3------|


play 3 times

|---------------------------------|
|---------------------------------|
|---------------------------------|
|---------------------------------|
|--4-------5-------4-------5------|
|--2-------3-------2-------3------|

(gtr. 1 out)


(free time)



gtr. 2        

|---------------------------------|
|---------------------------------|
|---------------------------------|
|-(14)--------------15------------|
|--tr---------------tr------------|
|-(12)--------------13------------|




Revolver
~~~~~~~~~~~~~~~~~~~~~~~~~~~~~~~~~~~~~~~~~~~~~~~~~~~~

TUNING: drop d (D,A,D,G,B,E)

INTRO PART A
A bunch of weird stuff first
|--0----------------------------|
|--0--- hold this for 8 beats --|
|--0----------------------------|
|-------------------------------|
|-------------------------------|
|-------------------------------| 

INTRO PART B  x2
|-----------------------------------------|
|-----------------------------------------|
|-----------------------------------------| 
|--------------------------------------3--| 
|--3--4--5---------------3----5--3--5-----|
|-----------0--3----5---------------------|

|-----------------------------------------|
|-----------------------------------------|
|-----------------------------------------|
|-----------------------------------------|
|--3--4--5---------------3----5--2--5-----|
|-----------0--3----5------------------0--|

INTRO PART C  x2
|-------------------------------------------|
|-------------------------------------------|
|--10v-----------------------------------x--|
|--10v------------------------------3----x--|
|---------------------3----5--3--5----------|
|-----------3----5--------------------------|

|-------------------------------------------|
|-------------------------------------------|
|--10v--------------------------------------|
|--10v--------------------------------------|
|---------------------3----5--2--5----------|
|-----------3----5------------------0-------|

VERSE
|------------------------------|
|------------------------------|
|------------------------------|
|------------10b---------------|
|--------------------------12--|
|--0---------------------------|

PRE-CHORUS
|----------------------------------|
|----------------------------------|
|--17------------------------------|
|---x- hit this chord repeatedly --|
|--15------------------------------|
|----------------------------------|

FILL 1: (just before chorus)
|-------------------|
|--19-19-19-19-19\--|
|--19-19-19-19-19\--|
|--19-19-19-19-19\--|
|--17-17-17-17-17\--|
|-------------------|

CHORUS
|----------------------------------------------------|
|----------------------------------------------------|
|----------------------------------------------------|
|------------3-----------3-----------3---------------|
|--5-----3h5---------3h5---------3h5------------0h3--|
|-----0-----------0-----------0-----------0h3h5------|


GUITAR SOLO
Play this eight times
|---------------------------|
|---------------------------|
|---------------------------|
|---------------------------|
|--x-x-x-x-x-x-x-x-x-x-x-x--|
|---------------------------|

Play this eight times
|---------------------------|
|--10b----------------------|
|--12b----------------------|
|---------------------------|
|---------------------------|
|------------------x-x-x-x--|

Play this three times
|---------------------------------------------|
|--18b---------15b---------10b----------------|
|--20b---------17b---------12b----------------|
|---------------------------------------------|
|---------------------------------------------|
|------------------------------------x-x-x-x--|


Then bend this chord seven times
|--17b--|
|--19b--|
|-------|
|-------|
|-------|
|-------|


2ND INTERLUDE:
Hold each chord for 2 bars
|-----------------------------0--|
|--6--------6--------3--------3--|
|--5--------5--------2--------2--|
|--0--------0--------0--------0--|
|--3--------0--------0--------0--|
|--------------------------------|



Snakecharmer
~~~~~~~~~~~~~~~~~~~~~~~~~~~~~~~~~~~~~~~~~~~~~~

TUNING: drop d (D,A,D,G,B,E)

INTRO
|-----------------------|
|-------18---------18---|
|-------17---------17---|
|-------16---------16---|
|-------17---------17---|
|--0----------0---------|

VERSE
|------------------------------------------------------------|
|------------------------------------------------------------|
|--------12---------------------------12---------------------|
|---------------10--12--10--12---------------12--12--11--10--|
|----------------x---x---x---x----------------x---x---x---x--|
|--0--0------0--10--12--10--12--0--0------0--12--12--11--10--|

CHORUS
|------------------------------------------------------------|
|------------------------------------------------------------|
|--------12---------------------------12---------------------|
|---------------10--12--10--12---------------12--12--11--10--|
|---------------10--12--10--12---------------12--12--11--10--|
|--0--0------0--10--12--10--12--0--0------0--12--12--11--10--|

INTERLUDE
|-----------------------------------------------------------------|
|-----------------------------------------------------------------|
|--14--14--14--14--14--12--------14--14--14--14--14--12-----------|
|--12--12--12--12--12--10--------12--12--12--12--12--10-----------|
|--12--12--12--12--12--10--x--x--12--12--12--12--12--10--x-x-x-x--|
|--12--12--12--12--12--10--x--x--12--12--12--12--12--10--x-x-x-x--|

play this three times
|--------------------------------------------|
|--------------------------------------------|
|--------------------------------------------|
|--------------------------------------------|
|----------------------------------5--3------|
|--0----0----5--3--0----7--5--0----------3b--|

then this once
|-------------------------------------------------|
|-------------------------------------------------|
|-------------------------------------------------|
|-------------------------------------------------|
|----------------------------------------------0--|
|--0----/12------12------12--10------5--3------0--|

OUTRO
|--------------------------------------------|
|--------------------------------------------|
|--------------------------------------------|
|--------------------------------------------|
|----------------------------------5--3------|
|--0----0----5--3--0----7--5--0----------3b--|




Tire Me
~~~~~~~~~~~~~~~~~~~~~~~~~~~~~~~~~~~~~~~~~~~~~~~~~~~~~~~~~~

TUNING: drop d (D,A,D,G,B,E)


INTRO
|-----------------------------|
|-----------------------------|
|-----------------------------|
|-----------------------------|
|--x--x--x--x--x--x--x--x--x--|
|--x--x--x--x--x--x--x--x--x--|

VERSE
|-------------------------------------|
|-------------------------------------|
|-------20b---------------------------|
|--------x--- bend chord repeatedly --|
|-------18b---------------------------|
|--0----------------------------------|

CHORUS
|--------------------------------------------|
|--------------------------------------------|
|--------------------------------------------|
|-----------------------------------------3--|
|-----8--5-----8--5-----8--5-----8--5-----3--|
|--0--------0--------0--------0--------0--3--|

INTERLUDE
|--/22------22--|
|----x-------x--|
|--/19------19--|
|---------------|
|---------------|
|---------------|




Down Rodeo
~~~~~~~~~~~~~~~~~~~~~~~~~~~~~~~~~~~~~~~~~~~~~~~~~~~~~~


Intro
|-9--9--9--9--9--9--9--9--9--9--9--9--9--9--9--9--|
|-9--9--9--9--9--9--9--9--9--9--9--9--9--9--9--9--|
|-13-13-13-13-13-13-13-13-13-13-13-13-13-13-13-13-|
|-11-11-11-11-11-11-11-11-11-11-11-11-11-11-11-11-|
|-9--9--9--9--9--9--9--9--9--9--9--9--9--9--9--9--|
|-9--9--9--9--9--9--9--9--9--9--9--9--9--9--9--9--|



|-9--9--9--9--9--9--9--9--9--9--9--9--------------|
|-9--9--9--9--9--9--9--9--9--9--9--9--\--0--------|
|-13-13-13-13-13-13-13-13-13-13-13-13-\--1--------|
|-11-11-11-11-11-11-11-11-11-11-11-11-\--2--------|
|-9--9--9--9--9--9--9--9--9--9--9--9--\--2--------|
|-9--9--9--9--9--9--9--9--9--9--9--9-----0--------|



Intro/Chorus
|---------------------------------|
|---------------------------------|
|-3b4r3---------------------------|
|---------4-----------------------|
|---------------------------------|
|-------------2-0-0-2-0-2-3-2-0---|

                               
|---------------------------------|---|
|---------------------------------|---|
|---------3b4r3-------------------|---|
|-----x-x---------x-x-x---x---x-x-|---|
|-----x-x---------x-x-x---x---x-x-|-2-|
|-0-2-x-x---------x-x-x---x---x-x-|-0-|


Verse riff 1
|---------------------------------|
|---------------------------------|
|---------------------------------|
|---------x---x-----------x---x---|
|-2---4---x---x-2-2---4---x---x-2-|
|-0---2---x---x-0-0---2---x---x-0-|


                    
Verse riff 2
hammer-on
|---------------------------------|
|---------------------------------|
|---------------------------------|
|-14------16----------------------|
|-----------------14------16------|
|---------------------------------|

                              
Pre-Chorus
|---------0-----------0-----------|
|---------0-----------0-----------|
|---------2-----------2-----------|
|-0---0---0---0---0---0---0---0---|
|---------------------------------|
|-3---3-------3---3-------3---3---|

                            

|-0------0------------0-----------|
|-0------0------------0-----------|
|-2------2------------2-----------|
|-0---0--0----0---0---0---x-------|
|-------------------------x-2-----|
|-----3-------3---3-------x-0-----|


Interlude
|---------------------------------|
|---------------------------------|
|---------------------------------|
|-2---2---2---2---2---2---2---2---|
|-2---2---2---2---2---2---2---2---|
|-0---0---0---0---0---0---0---0---|
                                            
|---------0-0-0-0-0-0-0-0-0-0-0-0-|
|-3-3-3-3-3-3-3-3-3-3-3-3-3-3-3-3-|
|-2-2-2-2-2-2-2-2-2-2-2-2-2-2-2-2-|
|-0-0-0-0-0-0-0-0-0-0-0-0-0-0-0-0-|
|---------------------------------|
|---------------------------------|

|-------------------------------------------------|
|-------------------------------------------------|    
|-12-12-x--x--12-12-12-12-x--x--12-12-12-12-x--x--|  
|-------------------------------------------------| 
|-------------------------------------------------| 
|-------------------------------------------------|


last chord
|-------|
|-------|
|-4-----|
|-2-----|
|-2-----|
|-0-----|



Without A Face
~~~~~~~~~~~~~~~~~~~~~~~~~~~~~~~~~~~~~~~~~~~~~~~~~~~~~~

Intro/Verse
|-------------------|
|-------------------|
|--7-7-7-7-7-7-7-7--|
|-------------------|
|-------------------|
|-------------------|
harmonics


Interlude(with whammy pedal)
|----------------------------------|
|----------------------------------|
|----------------------------------|
|----------------------------------|
|----------------------------------|
|--3p1h3p1h3p1h3p1h3------------1--|


Chorus (with whammy pedal)
|---------------------------------------------------------|
|---------------------------------------------------------|
|-----------------------------------------3---------------|
|---------------------------------------------------------|
|---------------------------------------------------------|
|--3p1-3p1-3p1-3p1-3p1-3p1-3p1-3p1--1--3---------------1--|


Outro
|----------------------3------------3----------|
|----------------------3------------3----------|
|----------------------0------------0----------|
|----------------------0------------0----------|
|----------------------x------------x----------|
|--3b------------------3------------3----------|




Wind Below
~~~~~~~~~~~~~~~~~~~~~~~~~~~~~~~~~~~~~~~~~~~~~~~~~~~~

Intro/Chorus
|------------------------------------------------------------------|
|------------------------------------------------------------------|
|--4-2-4b---2-2----------------------------------------------------|
|----------------4--3-2-/7-4---6/9---------------------------------|
|------------------------------4/7---------------------------------|
|------------------------------------7-6-7-9-7-6-0--x-x-x--x--x-x--|

Verse (with whammy pedal)
|-------------------------------------------------------|
|-------------------------------------------------------|
|--7h8p7h8p7h8p7h8-3h4p3h4p3h4p3h4-4h5p4h5p4h5p4h5p4h5--|
|-------------------------------------------------------|
|-------------------------------------------------------|
|-------------------------------------------------------|

GUITAR SOLO:
Play three times
|----------------------------7-5-3--|
|----3-5---3-5---3-5---3-5----------|
|--4-----4-----4-----4-----4--------|
|-----------------------------------|
|-----------------------------------|
|-----------------------------------|

Then play this
|-----------------------------------|
|----3-5---4-6---5-7---6-8---7-9-7--|
|--4-----5-----6-----7-----8--------|
|-----------------------------------|
|-----------------------------------|
|-----------------------------------|

|--------------12----------12------11----------11----------11--10--|
|--11--11----------11----------11------10----------10--------------|
|----------12----------12------------------11----------11----------|
|------------------------------------------------------------------|
|------------------------------------------------------------------|
|------------------------------------------------------------------|

|--10---------10---------10-----9--------9------|
|------9----------9----------9-----8------------|
|---------10---------10---------------9-----9\--|
|-----------------------------------------------|
|-----------------------------------------------|
|-----------------------------------------------|

|--12----------12----------12------11----------11---------11------|
|------11----------11----------11------10---------10----------10--|
|----------12----------12------------------11---------11----------|
|-----------------------------------------------------------------|
|-----------------------------------------------------------------|
|-----------------------------------------------------------------|

|--10---------10---------10-----9--------9-----|
|------9----------9----------9-----8-----------|
|---------10---------10---------------9-----9--|
|----------------------------------------------|
|----------------------------------------------|
|----------------------------------------------|

Outro-Chorus
|-------0---------------------0------------------|
|-------0---------------------0------------------|
|-------0---------------------0------------------|
|-------0---------------------0------------------|
|-------0---------------------0------------------|
|--0----3-------------x--0----3-------------/19--|




Roll Right
~~~~~~~~~~~~~~~~~~~~~~~~~~~~~~~~~~~~~~~~~~~~~~~~~~~~~

Intro
|------------------------------------------|
|------------------------------------------|
|------------------------------------------|
|------11p0-9p0----------------------------|
|---------------11p0-10p0-9p0-7p0----------|
|--9p0----------------------------7p0-7-9--|

Then mess around with the 10th fret of the b string

Verse (no guitar)

Chorus
|------------------------------------------|
|------------------------------------------|
|------------------------------------------| 
|------11p0-9p0----------------------------|
|---------------11p0-10p0-9p0-7p0----------|
|--9p0----------------------------7p0-7-9--|

Solo (tapped with right hand)
|--0-----------------------------16-------------------------------|
|--0--------------------19----------------------------------------|
|--0-----------------------------------18-20----19----------------|
|--0-----------------19----19-18----18----------------------19----|
|--0-----------------------------------------18----17----17-------|
|--0--------------------------------------------------------------|

|--0--------------------------------------------------------------|
|--0----------------------------------------------------16-17-----|
|--0-------------------18----18----19-----------------------------|
|--0----------------16----------------17----------18--------------|
|--0-------------16-------16----16-------18----20----16-------15--|
|--0----------------------------------------17--------------------|

|--0--------------------------------------------------------------|
|--0-----------------------------------------------------17-------|
|--0-----------------------18----18----------17-------------------|
|--0--------------------21----16----------18----15----15----17----|
|--0-----------------19-------------15-14-------------------------|
|--0--------------------------------------------------------------|

|--0-------------------15----16----17----17------------0----------|
|--0-------------16----------------------------18--16--0----------|
|--0----------------------------16---------------------0----------|
|--0----------------15----15----------16----16---------0----------|
|--0--------------------------------------------------------------|
|--0---------------------------------------------------------0----|
                                                             ^hit eight times with wah
This is played four times
|------------------------|
|------------------------|
|------------------------|
|------------------------|
|-------5h7----------/5--|
|--0---------0-3--0------|

Outro
|------------------------|
|------------------------|
|------------------------|
|------------------------|
|-------5h7----------/5--|
|--0---------3----0------|




Year Of The Boomerang
~~~~~~~~~~~~~~~~~~~~~~~~~~~~~~~~~~~~~~~~~~~~~~~~~~~~~~~~~~~~~~~~

TUNING: drop d (D,A,D,G,B,E)


Intro
|--12-----------------------|
|--12-----------------------|
|--12-----------------------|
|--12-----------------------|
|---------------------------|
|--------12--0--2--0--5--0--|
         ^ harmonics

Verse
E|------------------------------|
|------------------------------|
|------------------------------|
|---------0h2------------------|
|------------------------------|
|--2--x-x------0----2--x--x-0--|

Interlude
|-----------------------------------------------------------------|
|-----------------------------------------------------------------|
|-----------------------------------------------------------------|
|-------------12-------12-----7-----7-----3-----5-----3-----------|
|----------12-------12------7-----7-----3-----5-----3---10/12-10--|
|--17\--12-------12-------7-----7-----3-----5-----3-----10/12-10--|
        h............................

Chorus
|--12-----------------------|
|--12-----------------------|
|--12-----------------------|
|--12-----------------------|
|---------------------------|
|--------12--0--2--0--5--0--|
    ^ harmonics

Bridge (play this four times)
|----------------|
|----------------|
|----------------|
|----------------|
|----------------|
|--4---4---x--2--|

Play this eight times
|------------------------|
|------------------------|
|------------------------|
|------------------------|
|------------------0-----|
|--4-(4)--4-(2)--4----2--|

Then play this eight times
|--4-4--4-4--4-4--4--|
|--5-5--5-5--5-5--5--|
|--4-4--4-4--4-4--4--|
|--6-6--6-6--6-6--6--|
|--4-4--4-4--4-4--4--|
|--------------------|

Outro
|------------------------------|
|------------------------------|
|--6-----7-----8-----9-----9b--|
|------------------------------|
|------------------------------|
|------------------------------|
9 comments total. Showing first comments.
0 reply
TaV0 wrote on August 14 2007, 10:44 pm

Great, almost ervy song is near to perfect.

0 reply
The4thHorsemen wrote on August 14 2007, 10:45 pm

thanks :)

0 reply
chinkboy7 wrote on February 16 2008, 11:05 pm

This would be better if you knew how to do all the effects and stuff but good job

I want to post or [tab]
guest
You may want to rate the tab now too:
select rating
Please do not post tabs as comments. Select "correction" instead!