Oops, an error
Loading. Please wait.

Freedom Tab

ver5
ver5

Solo

Interactive

More versions @911Tabs.com
1,539 views 1 this week
2 commentsread comments
1 2 3 4 5
accurate
x 1
Autoscroll
+/-
esc
set tempo
stop
Hey! There's an official Ultimate Guitar app which is ideal
for learning songs when you're away from computer. Get the app
WARNING: You are trying to view
                                    content from Ultimate-Guitar.com
                                    in an unauthorized application,
                                    which is prohibited.

                                    Please use an official Ultimate
                                    Guitar Tabs application for iPhone,
                                    iPad or Android to access legitimate
                                    chords, guitar, bass, and drum tabs
                                    from Ultimate-Guitar.com database.

                                    Type "ultimate guitar tabs" in Apple
                                    App Store's or Android Market's
                                    search to find the application.
Drop-D

Important note (*) = strike the G string behind the neck to get a high pitched D note

Intro:

E-|-------------------------------------------------------------------------|
B-|-------------------------------------------------------------------------|
G-|-------------------------------------------------------------------------|
D-|-------------------------------------------------------------------------|
A-|------5------------3-----------------------5---5-------------------------|
D-|----------0---3h5--------5---3---5---3-----------------------------------|

E-|-------------------------------------------------------------------------|
B-|-------------------------------------------------------------------------|
G-|-------------------------------------------------------------------------|
D-|--------------------------------------------------------x--x--x----------|
A-|---------------5-----------3-----------------------5----x--x--x----------|
D-|-----0---3--------0---3h5----------5---3---5---3--------x--x--x----------|

E-|-------------------------------------------------------------------------|
B-|-------------------------------------------------------------------------|
G-|-------------------------------------------------------------------------|
D-|-------------------------------------------------------------------------|
A-|------5-------------3----------------------5---5-------------------------|
D-|----------0---3h5----------5---3---5---3---------------------------------|

E-|--------------------------------------------------------------------------|
B-|--------------------------------------------------------------------------|
G-|--------------------------------------------------------------------------|
D-|--------------------------------------------------------5---4---3---------|
A-|-------------5--------------3-------------------------------------5---4-3-|
D-|-----0---3--------0---3h5----------5---3---5---3--------------------------|
                                                           |                   |
                                                      |_____Palm Mute_____|


E-|-------------------------------------------------------------------------|
B-|-------------------------------------------------------------------------|
G-|-------------------------------------------------------------------------|
D-|-------------------------------------------------------------------------|
A-|------5--------------3-----------------------5---5-----------------------|
D-|----------0---3h5-----------5---3---5---3--------------------------------|

E-|-------------------------------------------------------------------------|
B-|-------------------------------------------------------------------------|
G-|-------------------------------------------------------------------------|
D-|-------------------------------------------------------------------------|
A-|---------------5------------3------------------------5---------------12\-|
D-|-----0---3--------0---3h5----------5---3---5---3------------------(*)12\-|

E-|-------------------------------------------------------------------------|
B-|-------------------------------------------------------------------------|
G-|-------------------------------------------------------------------------|
D-|-------------------------------------------------------------------------|
A-|------5-------------3------------------------5---5-----------------------|
D-|----------0---3h5---------5---3---5---3----------------------------------|

E-|-------------------------------------------------------------------------|
B-|-------------------------------------------------------------------------|
G-|-------------------------------------------------------------------------|
D-|-------------------------------------------------------------------------|
A-|-------------5--------------3-----------------------5--------------------|
D-|-----0---3--------0---3h5----------5---3---5---3-------------------------|


Verse: 00:26

Palm Mute open D string.

E-|----12-------12-12---------12--12-12-----12------12-12-------------------------|
B-|----x--------x--x----------x---x--x------x-------x--x------------5--p4---5-5---|
G-|----12-------12-12---------12--12-12-----12------12-12-----------5--p4---5-5---|
D-|----10-------10-10---------10--10-10-----10------10-10-----------5--p4---5-5---|
A-|----10-------10-10---------10--10-10-----10------10-10-------------------------|
D-|-------0-0---------0-0-0-0-----------0-0----0-0-0------0-0-0-0-----------------|

E-|----12-------12-12---------12--12-12-----12------12-12----------------------------|
B-|----x--------x--x----------x---x--x------x-------x--x------------5--p4---5-5------|
G-|----12-------12-12---------12--12-12-----12------12-12-----------5--p4---5-5------|
D-|----10-------10-10---------10--10-10-----10------10-10-----------5--p4---5-5------|
A-|----10-------10-10---------10--10-10-----10------10-10------------------------12\-|
D-|-------0-0-0-------0-0-0-0-----------0-0----0-0-0------0-0-0-0----------------12\-|


00:39

?Paintings of rebellion drawn up by the thoughts I think?

E-|---------------------------------------------------------------------------------|
B-|---------------------------------------------------------------------------------|
G-|---------------------------------------------------------------------------------|
D-|---------------------------------------------------------------------------------|
A-|------5------------3-----------------------5---5---------------------------------|
D-|----------0---3h5--------5---3---5---3-------------------------------------------|

E-|---------------------------------------------------------------------------------|
B-|---------------------------------------------------------------------------------|
G-|---------------------------------------------------------------------------------|
D-|---------------------------------------------------------x--x--x-----------------|
A-|---------------5------------3------------------------5---x--x--x-----------------|
D-|-----0---3--------0---3h5----------5---3---5---3---------x--x--x-----------------|

E-|---------------------------------------------------------------------------------|
B-|---------------------------------------------------------------------------------|
G-|---------------------------------------------------------------------------------|
D-|---------------------------------------------------------------------------------|
A-|------5-------------3----------------------5---5---------------------------------|
D-|----------0---3h5--------5---3---5---3-------------------------------------------|

E-|----------------------------------------------------------------------------------|
B-|----------------------------------------------------------------------------------|
G-|----------------------------------------------------------------------------------|
D-|--------------------------------------------------------5---4---3-----------------|
A-|-------------5--------------3-------------------------------------5---4---3-------|
D-|-----0---3--------0---3h5----------5---3---5---3----------------------------------|
                                                           |                   |
                                                           |_____Palm Mute_____|


E-|---------------------------------------------------------------------------------|
B-|---------------------------------------------------------------------------------|
G-|---------------------------------------------------------------------------------|
D-|---------------------------------------------------------------------------------|
A-|------5------------3-----------------------5---5---------------------------------|
D-|----------0---3h5--------5---3---5---3-------------------------------------------|


E-|---------------------------------------------------------------------------------|
B-|---------------------------------------------------------------------------------|
G-|---------------------------------------------------------------------------------|
D-|---------------------------------------------------------------------------------|
A-|-------------5--------------3--------------------------5-------------12\---------|
D-|-----0---3--------0---3h5----------5---3---5---3-----------------(*)-12\---------|

E-|----------------------------------------------------------------------------------|
B-|----------------------------------------------------------------------------------|
G-|----------------------------------------------------------------------------------|
D-|----------------------------------------------------------------------------------|
A-|------5------------3-----------------------5---5----------------------------------|
D-|----------0---3h5------5---3---5---3----------------------------------------------|


E-|---------------------------------------------------------------------------------|
B-|---------------------------------------------------------------------------------|
G-|---------------------------------------------------------------------------------|
D-|---------------------------------------------------------------------------------|
A-|---------------5------------3--------------------------5-------------------------|
D-|-----0---3--------0---3h5----------5---3---5---3---------------------------------|

01:05

Palm Mute open D string.

E-|----12-------12-12---------12--12-12-----12------12-12------------------------|
B-|----x--------x--x----------x---x--x------x-------x--x------------5--p4---5-5--|
G-|----12-------12-12---------12--12-12-----12------12-12-----------5--p4---5-5--|
D-|----10-------10-10---------10--10-10-----10------10-10-----------5--p4---5-5--|
A-|----10-------10-10---------10--10-10-----10------10-10------------------------|
D-|-------0-0-0-------0-0-0-0-----------0-0----0-0-0------0-0-0-0----------------|


E-|----12-------12-12---------12--12-12-----12------12-12----------------------------------|
B-|----x--------x--x----------x---x--x------x-------x--x------------5--p4---5-5------------|
G-|----12-------12-12---------12--12-12-----12------12-12-----------5--p4---5-5------------|
D-|----10-------10-10---------10--10-10-----10------10-10-----------5--p4---5-5------------|
A-|----10-------10-10---------10--10-10-----10------10-10------------------------/12\------|
D-|-------0-0-0-------0-0-0-0-----------0-0----0-0-0------0-0-0-0----------------/12\--0---|


?Brother, did you forget your name??..?

01:26
open volume on this:

E-|-----0-----------|
B-|-----0-----------|
G-|-----0-----------|
D-|-----0-----------|
A-|-----0-----------|
D-|-----0-----------|

Fill:

E-|-----------------|
B-|---10-/13-9v-----|
G-|---9v-----9v-----|
D-|-----------------|
A-|-----------------|
D-|-----------------|

?(anger is a gift)?

E-|---------------------------------------------------------------------------------|
B-|---------------------------------------------------------------------------------|
G-|---------------------------------------------------------------------------------|
D-|---------------------------------------------------------------------------------|
A-|--3--3--3--3---------------5------5---3---------3---5----------------------------|
D-|----------------5---3---5--------------------5-----------------------------------|

                                          (x4)

E-|---------------------------------------------------------------------------------|
B-|---------------------------------------------------------------------------------|
G-|---------------------------------------------------------------------------------|
D-|---------------------------------------------------------------------------------|
A-|--7--7--7--7---------------9------9---7---------7---9----------------------------|
D-|----------------9---7---9--------------------9-----------------------------------|

                                          (x4)

E-|---------------------------------------------------------------------------------|
B-|---------------------------------------------------------------------------------|
G-|---------------------------------------------------------------------------------|
D-|--10--10--10--10--10--10--12----12--12--12--12--12-------------------------------|
A-|---------------------------------------------------------------------------------|
D-|---------------------------------------------------------------------------------|

                                          (x2)

E-|----------------------------------------------------------------------------------|
B-|----------------------------------------------------------------------------------|
G-|----------------------------------------------------------------------------------|
D-|--10--10--10--10--10--10--12v---12---10--------10--12----10--10--10--10--10--12~~-|
A-|-------------------------------------------12-------------------------------------|
D-|----------------------------------------------------------------------------------|

Solo 02:08

E-|--------------------------------------------------------------------------|
B-|--------------------------------------------------------------------------|
G-|---------10v------10\9v------------------------------------10^------------|
D-|--/10h12-----------------------------10v-----------10h12-------12v---\----|
A-|------------------------------/10h12----------10h12-----------------------|
D-|--------------------------------------------------------------------------|

E-|--------------------------------------------------|
B-|---------------------------10h11--10--------------|
G-|----------10v------10h12-------------12--10\9v--\-|
D-|--/10h12------------------------------------------|
A-|--------------------------------------------------|
D-|--------------------------------------------------|

E-|-/12--13--12-------/12--13--12------/12--13--15--/17v---/15--13--15--13------------|(*)
B-|--------------13----------------13--------------------------------------15-15v-----|
G-|-----------------------------------------------------------------------------------|
D-|-----------------------------------------------------------------------------------|
A-|-----------------------------------------------------------------------------------|
D-|-----------------------------------------------------------------------------------|

02:34

"Drop that!"

E-|---------------------------------------------------------------------------------|
B-|---------------------------------------------------------------------------------|
G-|---------------------------------------------------------------------------------|
D-|-----------------------5--3--5--3--5---------------------------------------x--3--|
A-|-----5--3--5--3--5--------------------3--2--3--2--3------------------------x--3--|
D-|-------------------------------------------------------5--3--5--3--5--0----x--3--|

                                       (x4)

02:57

PM the open D.

E-|---12-------12-12----------12-------------|
B-|----x--------x--x-----------x-------------|
G-|---12-------12-12----------12-------------|
D-|---10-------10-10----------10---6/14------|
A-|---10-------10-10----------10---4/12------|
D-|------0-0-0-------0-0-0-0-----------------|

E-|----12-------12-12---------12--12-12-----12------12-12------------------------|
B-|----x--------x--x----------x---x--x------x-------x--x------------5--p4---5-5--|
G-|----12-------12-12---------12--12-12-----12------12-12-----------5--p4---5-5--|
D-|----10-------10-10---------10--10-10-----10------10-10-----------5--p4---5-5--|
A-|----10-------10-10---------10--10-10-----10------10-10------------------------|
D-|-------0-0-0-------0-0-0-0-----------0-0----0-0-0------0-0-0-0----------------|

E-|----12-------12-12---------12--12-12-----12------12-12------------------------|
B-|----x--------x--x----------x---x--x------x-------x--x------------5--p4---5-5--|
G-|----12-------12-12---------12--12-12-----12------12-12-----------5--p4---5-5--|
D-|----10-------10-10---------10--10-10-----10------10-10-----------5--p4---5-5--|
A-|----10-------10-10---------10--10-10-----10------10-10------------------------|
D-|-------0-0-0-------0-0-0-0-----------0-0----0-0-0------0-0-0-0----------------|

03:13

E-|------------------|
B-|------10\---------|
G-|-------7\---------|
D-|------------------|
A-|------------------|
D-|------------------|


"Environment, the environment exceeding on the level of our unconciousness?"

open volume on this:

E-|-----0-----------|
B-|-----0-----------|
G-|-----0-----------|
D-|-----0-----------|
A-|-----0-----------|
D-|-----0-----------|

Fill:
Open volume on each of these

E-|-----------------|
B-|--11--12--11-----|
G-|--10--11--10-----|
D-|-----------------|
A-|-----------------|
D-|-----------------|

03:41 (anger is a gift)

E-|---------------------------------------------------------------------------------|
B-|---------------------------------------------------------------------------------|
G-|---------------------------------------------------------------------------------|
D-|---------------------------------------------------------------------------------|
A-|--3--3--3--3-----------------5------5---3---------3---5--------------------------|
D-|----------------5---3---5--------------------5-----------------------------------|
                                       (x4)

E-|---------------------------------------------------------------------------------|
B-|---------------------------------------------------------------------------------|
G-|---------------------------------------------------------------------------------|
D-|---------------------------------------------------------------------------------|
A-|--10--10--10--10-------------------12-----12---10----------10---12---------------|
D-|--------------------12---10---12---------------------12--------------------------|
                                       (x4)

Tremolo pick

E-|------------------|
B-|------------------|
G-|------------------|
D-|------------------|
A-|-3-3-3-3-3-3-3-3--|
D-|------------------|
                                       (x4)
"Awwwww bring that s**t in!!"


E-|---------------------------------------------------------------------------------|
B-|---------------------------------------------------------------------------------|
G-|---------------------------------------------------------------------------------|
D-|---------------------------------------------------------------------------------|
A-|--3--3--3--3---------------5------5---3----------3---5---------------------------|
D-|---------------5---3---5--------------------5------------------------------------|

                                        (x4)

E-|------------------------------------------------------------|
B-|------------------------------------------------------------|
G-|------------------------------------------------------------|
D-|--10--10--10--10--10--10--12----12--12--12--12--12----------|
A-|------------------------------------------------------------|
D-|------------------------------------------------------------|


                                        (x4)
E-|-----------------|
B-|-----3-----------|
G-|-----2-----------|
D-|-----0-----------|
A-|-----0-----------|
D-|-----0-----------|


"Freedom? yeah right..."

E-|-----------------------------------------------------------|
B-|-----------------------------------------------------------|
G-|----------------------------5---6---7----------------------|
D-|-------------5---6---7-------------------------------------|
A-|-----5---8-------------------------------------------------|
D-|-----------------------------------------------------------|


E-|-------------------------------------------------|
B-|-------------------------------------------------|
G-|-------------------------------------------------|
D-|-----0----3----5----6----7----10----11----12-----|
A-|-----0----3----5----6----7----10----11----12-----|
D-|-----0----3----5----6----7----10----11----12-----|


E-|---2---2---2---2---2-------2--|
B-|---3---3---3---3---3-------3--|
G-|---2---2---2---2---2-------2--|
D-|---0---0---0---0---0-------0--|
A-|---0---0---0---0---0-------0--|
D-|---0---0---0---0---0-------0--|
comments
We did not receive enough feedback on this tab! Please rate:
print report bad tab
1 2 3 4 5
2 comments total.
0 reply
Pittman wrote on May 21 2007, 09:46 pm

Its an accurate tab on everything except the verse.Other than that,its pretty good,better than what I can do.

0 reply
Fender_Tele'71 wrote on May 21 2007, 09:50 pm

yeah man, i agree.... pretty good

I want to post or [tab]
guest
You may want to rate the tab now too:
select rating
Please do not post tabs as comments. Select "correction" instead!