Oops, an error
Loading. Please wait.

Guerrilla Radio Tab

ver2
ver2

Whole song

Interactive

More versions @911Tabs.com
2,123 views 3 this week
2 commentsread comments
1 2 3 4 5
worth learning
x 2
Autoscroll
+/-
esc
set tempo
stop
Contributor
Difficulty
intermediate
Hey! There's an official Ultimate Guitar app which is ideal
for learning songs when you're away from computer. Get the app
WARNING: You are trying to view
                                    content from Ultimate-Guitar.com
                                    in an unauthorized application,
                                    which is prohibited.

                                    Please use an official Ultimate
                                    Guitar Tabs application for iPhone,
                                    iPad or Android to access legitimate
                                    chords, guitar, bass, and drum tabs
                                    from Ultimate-Guitar.com database.

                                    Type "ultimate guitar tabs" in Apple
                                    App Store's or Android Market's
                                    search to find the application.
OK, i've seen morello do this tons of times. you need two and only these two things for 
solo:

1. crybaby/ wha pedal

2. toggle switch/ dual volume control setup (as seen on an LP)

I'll get to that later

Intro/chorus (for chorus slide up to headstock from low E then play)
Into: use tremolo pedal and distortion
chorus: just distortion                        then
----------------------------------------------------------------------------|
---------------------------x8-----------------------------------------------|
----------------------------------------------------------------------------|
-------------------------2-4-----------------4------------------------------|
-------2--4-4---4--4-4-4-0-2-----------------2-4--0-6-0---------------------|
-------0--2-2---0--2-2-0-----------------------2--2-4-2---------------------|

verse
distortion and wha pedal
 + + + + + + + + + + + + + + + + + + + + + + + + + + + + + +
----------------------------------------------------------------------------|
----------------------------------------------------------------------------|
----------------------------------------------------------------------------|
--------------------------------------------------------------x3------------|
----------------------------------------------------------------------------|
-2-2-2-2-2-2-2-2-2-2-2-2-2-2-2-2-2-2-2-2-2-2-2-2-2-2-2-2-2-2----------------|

bridge: this is the chorus just played with a phasing effect on it

Solo
Ok, how it works is, you are tapping the notes, while flicking the toggle
switch  just after tapping the note and pressing down on the wha pedal all
at once. it sounds hard but it's actually really simple. remember tapp the
riff wiht your index and ring finger (and for the 17 in the second half
your pinky)

                              +     +  +   +  +  +
----------------------------------------------------------------------------|
----------------------------------------------------------------------------|
-------------------------------------------------14-------------------------|
------------------------------16---14-16---14-16------x3--------------------|
----------------------------------------------------------------------------|
----------------------------------------------------------------------------|

then you flick the toggle switch like a madman whil holding down the 16 and
slowly pressing down on the wha pedal

then,
                            +    +  +   +   keep down until you restart
----------------------------------------------------------------------------|
----------------------------------------------------------------------------|
----------------------------16---14-16--14-16-17-16-14------x3--------------|
-------------------------------------------------------16-------------------|
----------------------------------------------------------------------------|
----------------------------------------------------------------------------|


finally
                          +   +   +   +   +
----------------------------------------------------------------------------|
----------------------------------------------------------------------------|
--------------------------16--14--------------------------------------------|
----------------------------------16--14--16--------------------------------|
----------------------------------------------------------------------------|
----------------------------------------------------------------------------|


outro
distortion
repeat but at the end of the riff, "chuck" 8 times (also known as "X" in
the tab world)
----------------------------------------------------------------------------|
----------------------------------------------------------------------------|
-----------------------------------x3---------------------------------------|
--4-4--4-7---4-4--4-7---4-4--4-7--------------------------------------------|
--2-2--2-5---2-2--2-5---2-2--2-5--------------------------------------------|


order
intro and chorus
verse
chorus
verse
chorus
bridge
solo
outro

effects used:

tremolo (built into his guitar)
phase (MXR Phase 90)
wha (crybaby)
distortion (marshall Amplifier)

index:
+ = down on wha pedal

your welcome
comments
We did not receive enough feedback on this tab! Please rate:
print report bad tab
1 2 3 4 5
2 comments total.
0 reply
Fender_Tele'71 wrote on July 26 2008, 03:11 pm

tuning???

0 reply
on3andth3sam3 wrote on July 26 2008, 11:17 pm

it's in standard tuning

I want to post or [tab]
guest
You may want to rate the tab now too:
select rating
Please do not post tabs as comments. Select "correction" instead!