Oops, an error
Loading. Please wait.

Renegades Tab

12,439 views 16 this week
5 commentsread comments
1 2 3 4 5
excellent!
x 2
add to favorites launch autoscroll
font size
0
reset
Autoscroll
+/-
esc
set tempo
stop
Contributor
WARNING: You are trying to view
                                    content from Ultimate-Guitar.com
                                    in an unauthorized application,
                                    which is prohibited.

                                    Please use an official Ultimate
                                    Guitar Tabs application for iPhone,
                                    iPad or Android to access legitimate
                                    chords, guitar, bass, and drum tabs
                                    from Ultimate-Guitar.com database.

                                    Type "ultimate guitar tabs" in Apple
                                    App Store's or Android Market's
                                    search to find the application.
Rage Against The Machine, RENEGADES

Missing tabs: Street fighting man, Down on the street


**NOTICE**: THIS IS NOT MY WORK! I just put together all of the available 5 (or highest rating) star

Renegades songs, because there isnt a renegades album. This is for convenience, not to piss people

off.


....................................................
Microphone fiend.

Part 1.


Intro and verse.

e-----     e-----|
B-----     B-----|
G-----     G-----|
D--4--     D--2--|
A--4--     A--2--|
E--2--     E-----|

This goes during first two verse with wha-wha pedal.

e---------------------------------------|
B---------------------------------------|
G--10-10-10-10-8-8-8-8-6-6-6-6-4-4-4-4--|
D---------------------------------------|
A---------------------------------------|
E---------------------------------------|

Just before the chorus.

e-----
B-----
G-----
D--7--
A--7--
E--5--


Chorus.

E, F, F, E, C, T a smooth operator operating correctly...

e-----------------------------|
B-----------------------------|
G-----------------------------|
D--4----x-x--4--7-------------|
A--4----x-x--4--7--7-9-7------|
E--2----x-x--2--5--------7-5--|


Chorus #2.

e-------------------------------|
B-------------------------------|
G-------------------------------|
D--4--7--4--7--4--7-------------|
A--4--7--4--7--4--7--7-9-7------|
E--2--5--2--5--2--5--------7-5--|


After the second chorus comes this.

Bend down the first chord.

e------------|
B------------|
G------------|
D--4---------|
A--4---------|
E--2--0-1-2--|


Then chorus.

e--------------------------|
B--------------------------|
G--------------------------|
D--4----x-x--4-------------|
A--4----x-x--4--7-9-7------|
E--2----x-x--2--------7-5--|

And last part.

e-------------------------------|
B-------------------------------|
G-------------------------------|
D--4--7--4--7--4--7-------------|
A--4--7--4--7--4--7--7-9-7------|
E--2--5--2--5--2--5--------7-5--|


At the absolutly last "thing" the last chorust part changes to this.

e-------------------------------|
B-------------------------------|
G-------------------------------|
D--4--7--4--7--4--7-------------|
A--4--7--4--7--4--7--7-9-7-9-7--|
E--2--5--2--5--2--5-------------|


Well thats it!

I think its right but if its not please mail me at:

monseurfjant@hotmail.com

Enjoy!

Tabbed by Sebastian Larsson.


.............................................................

Pistol Grip Pump


Okay, this is my first tab and i didnt use a wah wah.

STANDARD TUNING    ^ = bend note
                   \ = slide note
                   ~ = vibrato


Intro
e-------------------------------|
B-------------------------------|
G-------------------------------|
D-4^5-0-0-0-0-0--4^5-0-0-0-0-0--|
A-------------------------------|
E-------------------------------|


Main Riff
e-------------------------------|
B-------------------------------| play this throughout the song
G-------------------------------|
D-------------------------------|
A-9^-----7----------------------|
E-7^-7-5------------------------|

Solo
e-------------------------------|   Riff A
B-9--12-12----------------------|
G----------13^--10-12^-11-------|  play this 3x
D-------------------------------|
A-------------------------------|
E-------------------------------|

e--------------7-7--0--9-9--0---|  Riff B
B-9--12-12-----0-0--0--0-0--0---|
G----------13--5-5--0--7-7--0---|
D-------------------------------|
A-------------------------------|
E-------------------------------|

e-------------------------------|
B-\5----\5----------------------|
G-\5----\5----------------------|
D-------------------------------|
A-------------------------------|
E-------------------------------|

e-4----------6------------------| Riff C
B-0------6~--0------4-----------|
G-5--4-4-----4---4-5------------| play this 3x
D-------------------------------|
A-------------------------------|
E-------------------------------|

e-------------------------------|
B-9--12-12-----\5--\5-----------|
G----------13--\5--\5-----------|
D-------------------------------|
A-------------------------------|
E-------------------------------|

Outro
e-------------------------------|
B-------------------------------|
G-------------------------------| play this 8x
D-------------------------------|
A-9^-----7----------------------|
E-7^-7-5------------------------|


e-------------------------------|
B-------------------------------|
G-------------------------------|
D-4^5-0-0-0-0-0--4^5-0-0-0-0-0--|
A-------------------------------|
E-------------------------------|


e-------------------------------|
B-------------------------------|
G-------------------------------|
D-------------------------------|
A-9^-----7----------------------|
E-7^-7-5------------------------|

  Plz tell me what you think.




----------------------------------------------------------------------
              KICK OUT THE JAMS - RAGE AGAINST THE MACHINE
----------------------------------------------------------------------
Tabbed by:Sinder
Email:spartan130@hotmail.com

        Can't belive ultimate guitar does not have a good version thsi

site is awsome.  I studied the tabs on here and a few in dif places
and well this sounds cool. This isn't perfect listen to song for to
see exact timming and I belive that the live version is as folows
without the Muted strings in the beggining and of faster pace than
cd version.I know has to be something wrong with the structure.This
is as close as i could get it. I hope itsounds good. Hope u guys like
it Please leave comments. Rage,Tom and Zack Are awsome.

Tuning:Standard
Intro
e|----------------|-------------------------|
B|----------------|-------------------------|
G|--2--2--2--4----|-------------------------|
D|--2--2--2--4----|--x--x--x--x--x--x--x----|
A|--0--0--0--2----|--x--x--x--x--x--x--x----|
E|----------------|--x--x--x--x--x--x--x----|
  We Gotta Kickem out!    Riff 1
e|-----------------------|----------------------------------|
B|-----------------------|----------------------------------|
G|-----------------------|----------------------------------|
D|--x--x--x--x--x--x--x--|--------5--7----7--7---7b&r----7--|
A|--x--x--x--x--x--x--x--|--7--7--0--0----0--0---0----------|
E|--x--x--x--x--x--x--x--|--0--0----------------------------|
  Riff 2     Riff 1&2 backed by bass
e|------------------------------------------------|
B|------------------------------------------------|
G|------------------------------------------------|
D|--------5--7----7--7--7---7---------------------|
A|--7--7--0--0----0--0--0---0---------------------|
E|--0--0------------------------------------------|
  Intro W/Fill
e|---------------------------------------------------|
B|---------------------------------------------------|
G|--2--2--2--4--------------------------------------0|
D|--2--2--2--4--------x--x--x--x--x--x--x--x--x--x--0|
A|--0--0--0--2--------x--x--x--x--x--x--x--x--x--x--0|
E|--------------------x--x--x--x--x--x--x--x--x--x---|
  Fig A    Play through including section 1
e|---------------------------------------------|
B|--3------------------------------------------|
G|--2----------------------0--0----------0-----|
D|--0----------------2--2--0--0--2--2----0--0--|
A|--0----------------2--2--x--x--2--2----x-----|
E|-------------------0--0--3--3--0--0----3-----|
               Section 1                 End Fig A
---------------*----------------------------------*|
--3------------*----------------------------------*|
--2------------*--------------------------0-------*|
--0------------*--2--------x--x--x--x--x--0-------*|
--0------------*--2--------x--x--x--x--x--0-------*|
---------------*--0--------x--x--x--x--x----------*|
  Solo W/ Tremolo
e|------------------------------------------------------------|
B|--15--------15--------15--------15--------------------------|
G|--14b---(14)14b---(14)14b---(14)14b---(14)--14--12----------|
D|----------------------------------------------------14--12--|
A|------------------------------------------------------------|
E|------------------------------------------------------------|

----------------------------------------------------------------|
-15--------15--------15--------15--------------------------15---|
-14b---(14)14b---(14)14b---(14)14b--(14)--------------b(14)14b--|
------------------------------------------14--14--14------------|
----------------------------------------------------------------|
----------------------------------------------------------------|

-------------------------------------------------------------------|
---------------------------8--7------------------------------8--7--|
--(14)/12--------------------------7--------------------9----------|
-----------14--14--14-------------------------7--9-----------------|
-------------------------------------------------------------------|
-------------------------------------------------------------------|

-----------------------------------------------------------|
-----------------------------------------------------------|
----7----------7--9--------9----7-----8--------------------|
-----------------------------------9-----9----9--9---(9)\--|
-----------------------------------------------------------|
-----------------------------------------------------------|

Outro
e|--------------------------------------------------|
B|--------------------------------------------------|
G|--------------9--9--9--9--9--9--9--9--9--9--9--9--|
D|--------9--9--9--9--9--9--9--9--9--9--9--9--9--9--|
A|--------7--7--7--7--7--7--7--7--7--7--7--7--7--7--|
E|--0--0--0--0--0--0--0--0--0--0--0--0--0--0--0--0--|
    .  .  .  .  .  .  .  .  .  .  .  .  .  .  .  .
                AND FIN UP WITH RANDOM SCRAPS
Intro
Riff 1 x 12
Intro W/ Fill
Fig A
Riff 1 x 12
Intro W/Fill
Fig A
Section 1
Solo
Rif 1
Rif 2
Outro
Scraps

| /  slide up
| \  slide down
| h  hammer-on
| p  pull-off
| ~  vibrato
| +  harmonic
| x  Mute note
| .  Palm Mute
======================================================================



.........................................................

Renegades of Funk by Rage Against the Machine.
Tabbed by Neal EDravn25@aol.com.


Renegades of Funk cover by RATM

Drop D

w/whammy set 2 octaves up and wah:
E---------------------------------|
B---------------------------------|
G---------------------------------|
D-2---2---2---2---3---3---3---3---|
A---3---3---3---3---5---5---5---5-|
D---------------------------------|
normal(i.e. no wah or whammy)
E---------------------------|
B---------------------------|
G---------------------------|
D-5\7----5\7----5\7---3\5---|
A-3\5----3\5----3\5---3\5---|
D------0------0-----0-3\5---|
last time bend up with whammy on the 5s

w/whammy and wah
E--------------------------|
B--------------------------|
G--------------------------|
D--------------------------|
A----------0--3----3-------|
D-0--3--5-------------0----|
interlude (normal)
E---------------------------|
B---------------------------|
G---------------------------|
D---------------------------|
A-5-5----------------5-5----|
D------0------------------0-|
fill 1
E--------|
B--------|
G--------|
D--5--7--|
A--5--7--|
D--5--7--|
siren like sound
E-------------------------|
B-------------------------|
G--2slowbend3slowrelease2-|
D-------------------------|
A-------------------------|
D-------------------------|

:: Ultimate Guitar Archive ::
http://www.ultimate-guitar.com

..........................................................
Rage Against The Machine - Beautiful World (Devo)

Tabbed by: Joonas Kaselius a.k.a. Ronixis^

Listen the comp from the song. Let the chords ring. You can play highest E when
you're pulling your hand back. Every chord goes like 4x 1/8. Listen the song,
youll get it. D and the last chord of C are played through the whole beat.

A:
E||--0--|--0--|--0--|--0--||
B||--0--|--0--|--0--|--0--||
G||--5--|--4--|--5--|--7--||
D||--7--|--5--|--3--|--5--||
A||-----|-----|-----|-----||
E||-----|-----|-----|-----||

B:
E||--0--|--0--|--0--|--0--|--0--|--0--||
B||--0--|--0--|--0--|--0--|--0--|--0--||
G||--5--|--4--|--5--|--4--|--5--|--7--||
D||--7--|--5--|--3--|--5--|--3--|--5--||
A||-----|-----|-----|-----|-----|-----||
E||-----|-----|-----|-----|-----|-----||

C:
E||--0--|--0--|-----|-----||
B||--0--|--0--|--0--|-----||
G||--5--|--5--|--0--|-----||
D||--7--|--3--|--5--|--7--||
A||-----|-----|--3--|--5--||
E||-----|-----|-----|-----||

D:
E||--0--||
B||--0--||
G||--5--||
D||--7--||
A||-----||
E||-----||

3x A -> 1x B -> 1x B -> 2x A -> 1x B -> 1x C -> 3x A -> 1x D

.....................................................................

Rage Against The Machine
I'm Housin'

By KirK_H@mmeT  NZ

After seeing some shocking tabs (especially for the solo) i decided to perfect it.
Please rate if you think its close


This is the bass riff at the start:
e|-------------------------------|
B|-------------------------------|
G|-------------------------------|
D|-------------------------------|
A|-------------------------------|
E|--0--15-12-11-10-7-6--3h5---0--|

Then this every time:
e|-------------------------------|
B|-------------------------------|
G|-------------------------------|
D|-------------------------------|
A|-------------------------------|
E|--0--15-12-11-10-7-6\-----0-0--|

Verse:
If you dont have a wah peddal then simply bending the strings will have a similar effect.

e|----------------------------|
B|----------------------------|
G|--9b--12b----9b-9b-9b--12b--|
D|--9b--12b----9b-9b-9b--12b--|
A|----------------------------|
E|----------------------------|x8

Bridge:

e|----------------------------|
B|----------------------------|
G|----------------------------|
D|----------------2-2---------|
A|----------------2-2---------|
E|----------------0-0---------|x4

e|--------------------------------------|
B|--------------------------------------|
G|--------------------------------------|
D|--2-2--2-2--2-2--2-2-2-12-------------|
A|--2-2--2-2--2-2--2-2-2-12-------------|
E|--0-0--0-0--0-0--0-0-0-10-------------|x4


Main Riff:
e|---------------------------------------------|
B|---------------------------------------------|
G|---------------------------------------------|
D|---------------------------------------------|
A|----7-7------5---5---------------------------|
E|---------5-7-------7-5-3---------------------|x7

e|---------------------------------------------|
B|---------------------------------------------|
G|---------------------------------------------|
D|-----------------------------2---------------|
A|----7-7------5---5-----------2---------------|
E|---------5-7-------7-5-3-----0---------------|


Verse:
e|----------------------------|
B|----------------------------|
G|--9b--12b----9b-9b-9b--12b--|
D|--9b--12b----9b-9b-9b--12b--|
A|----------------------------|
E|----------------------------|x8

Bridge:
e|----------------------------|
B|----------------------------|
G|----------------------------|
D|----------------2-2---------|
A|----------------2-2---------|
E|----------------0-0---------|x4

e|--------------------------------------|
B|--------------------------------------|
G|--------------------------------------|
D|--2-2--2-2--2-2--2-2-2-12-------------|
A|--2-2--2-2--2-2--2-2-2-12-------------|
E|--0-0--0-0--0-0--0-0-0-10-------------|x4

Main Riff:
e|---------------------------------------------|
B|---------------------------------------------|
G|---------------------------------------------|
D|---------------------------------------------|
A|----7-7------5---5---------------------------|
E|---------5-7-------7-5-3---------------------|x7

e|--------------------------------------|
B|--------------------------------------|
G|--------------------------------------|
D|--2-2--2-2--2-2--2-2-2-12-------------|
A|--2-2--2-2--2-2--2-2-2-12-------------|
E|--0-0--0-0--0-0--0-0-0-10-------------|x4


Solo:
e|--------------------------------------------------------------------------|
B|--------------------------------------------------------------------------|
G|---14b15r14-14-12-14---------12-------------------------------------------|
D|---------------------14-12-14--14-12-14-----------------------------------|
A|--------------------------------------------------------------------------|
E|--------------------------------------------------------------------------|

e|--------------------------------------------------------------------------|
B|---15b16r15-15-14-15b16r15-15-14---17b18r17-17b18r17-17b19----------------|
G|--------------------------------------------------------------------------|
D|--------------------------------------------------------------------------|
A|--------------------------------------------------------------------------|
E|--------------------------------------------------------------------------|


Main Riff:
e|---------------------------------------------|
B|---------------------------------------------|
G|---------------------------------------------|
D|---------------------------------------------|
A|----7-7------5---5---------------------------|
E|---------5-7-------7-5-3---------------------|x7

e|----------------------------|
B|----------------------------|
G|----------------------------|
D|----------------2-2---------|
A|----------------2-2---------|
E|----------------0-0---------|x4


Any questions or suggestions email necro_cannible@hotmail.com

........................................................

Rage Against The Machine
          In My Eyes (minor threat cover)
          Tabbed by sean(warning136@hotmail.com
          ~=ring
          Drop d tunning

          intro
          e-------------------|
          b-------------------|
          g--9~~~~~~~~--------|
          D--9~~~~~~~~--------|
          A--7~~~~~~~~--------|
          D-------------------|

          verse 1
          e-------------------|
          b-------------------|
          g--9-8-7-----7-9----|
          D--9-8-7-5-7-7-9----|
          A--7-6-5-5-7-5-7----|
          D--------5-7--------|

          verse 2
            "you tell me you like the taste   you just need an excuse"
          e----------------------------------------------------------|
          b----------------------------------------------------------|
          g----------------------------------5---8---10--------------|
          D--5-5-5-5-5-5-5-5-5-5-5-5-5-5-5-5-5-7-8-8-10--------------|
          A--5-5-5-5-5-5-5-5-5-5-5-5-5-5-5-5-3-7-6-8-8---------------|
          D--5-5-5-5-5-5-5-5-5-5-5-5-5-5-5-5---7---8-----------------|

          chorus
            "it's in my eyes........"                   "and it doesn't look that way to me"
          e----------------------------------------------------------------------------------------|
          b----------------------------------------------------------------------------------------|
          b-----------------------------------------------------------7----------------------------|
          D--10-12-12-12-12-10-12-12-12-12--7-7--7-9-9----2-2-2-2-2-2-7-(3x)-2-2-2-2-2-2-5~~~~~~~--|
          A--10-12-12-12-12-10-12-12-12-12--7-7--7-9-9----2-2-2-2-2-2-5------2-2-2-2-2-2-5~~~~~~~--|
          D--10-12-12-12-12-10-12-12-12-12--7-7--7-9-9----2-2-2-2-2-2--------2-2-2-2-2-2-5~~~~~~~--|

          listen to the cd for the rhythm and timing


...........................................................

Band: Rage Against The Machine
Song: How I Could Just Kill A Man
CD: Renegades
Guitarist: Tom Morello

DROP D!

Listen to the timing and stuff with the CD. Its pretty easy.

Intro/Verse
 Use a whammy pedal and flipping your toggle switch back & forth.
 |-----------------------------------------------------------------------------|
 |-----------------------------------------------------------------------------|
 |-----------------------------------------------------------------------------|
 |-----------------------------------------------------------------------------|
 |-----------------------------------------------------------------------------|
 |-h10-h12-h10-h12--h10-h12--h12-h10-h15--h10-h12-h10-h12--h10-h12-h12-h10-h12-|

Chorus
 |----------------------------------|
 |----------------------------------|
 |----------------------------------|
 |---3------------------------------|
 |-----------3------------x-x-------|
 |-0---0-3-5----0-0-0-0-0-x-x-3h5-3-|

 |------------------------|
 |------------------------|
 |------------------------|
 |---3--------------------|
 |-----------3------------|
 |-0---0-3-5----0-0-0-0-0-|

Bride
 |-----------------|
 |-----------------|
 |-----------------|
 |-----------------|
 |-2h4-0h2h4-0h2h4-|
 |-----------------|



------------------------------------------------------------
             "The Ghost of Tom Joad"
                by- Rage Against The Machine
------------------------------------------------------------
Tabbed by Sam LaPolla

Dropped D Tunning

Intro/Chorus

|-----------------------|         |---|
|-----------------------|         |---|
|-----------------------|         |---|
|-----------------------| x3 Then |---|
|---5-3-0-------3---0-3-|         |---|
|-0-------5-3-0---5-----|         |-0-| (Let Ring)

Verse

|----------------------------|
|----------------------------|
|----------------------------|
|----------------------------|
|-----3---0-3-| x17----------|
|-0-----5--------------------|   Let Ring for a sec then stop palm mute
  ^--------------------------|

Chorus
    Play the Intro for the Chorus

  2nd part of the Chorus

|-10-10-10----------|
|-10-10-10----------|
|-10-10-10----------|
|-------------------|
|----------3---0-3--|
|------------5------|

Play this twards the End Several times then go play the
-chorus

|-----------------------|
|-----------------------|
|--xxxxxxxx-------------|
|--xxxxxxxx-------------|
|--xxxxxxxx-------------|
|--xxxxxxxx-------------|

Order

Intro/chorus
Verse
Chorus
Chorus 2
Verse
Chorus
Chorus 2
Verse
Muted Section
Chorus

......................................................................

MAGGIE’S FARM’ by RAGE AGAINST THE MACHINE
Appears on the Album ‘Renegades’ (Epic) released in 2000

Words by B. Dylan

Tabbed by: A.Kapper                                   Tuning: Dropped B

Alrighty then! The timing may not be perfect but all the notes are here. Also I only
the parts you need, but it is easy to figure out what goes where and if you can't do that
about time you pawned that guitar...

Intro: Cleanish                                            Dist Here!
e|--12-----12-----12------12-----10-----10-----10-----10-|--|-----|
b|------12-----12-----12------12-----12-----12----12-----|x2|-----|
G|-------------------------------------------------------|--|-----|
D|-------------------------------------------------------|--|-----|
A|-------------------------------------------------------|--|-----|
B|-------------------------------------------------------|--|-0//-|
On the second time vibrato the 10

Main Riff: Holy Moses this riff is good!
It's used during the verses, minus the little end riff.
e|-------------------------------------------------------------------|
b|-------------------------------------------------------------------|
G|-------------------------------------------------------------------|
D|---------------------------------------------0---------------------|
A|-----------------------------------------0-2---2-0-----------------|
B|--0-0-3p0--0-----0-3p0-5b---0-0--3p0---------------5-3-------------|

The way she makes you scrub the floors
e|--------------------------------|
b|--------------------------------|
G|-----7~~------4~~---------------|
D|-----7~~------4~~---------------|
A|-----5~~------2~~---------------|
B|-0-0------0-0-------------------|

Gonna work for Maggie’s brother
e|------------------------------------------------------------------|
b|------------------------------------------------------------------|
G|------------------------------------------------------------------|
D|------------------------------------------------------------------|
A|------------------------------------------------------------------|
B|---0-0--0--0-x-x-0-0--0--0-xxxx-----------------------------------|

He Fines you…
e|------------------------------------------------------------------|
b|------------------------------------------------------------------|
G|---7-7-7-7-7--4-4-4-4-4-------------------------------------------|
D|---7-7-7-7-7--4-4-4-4-4-------------------------------------------|
A|---5-5-5-5-5--2-2-2-2-2-------------------------------------------|
B|------------------------------------------------------------------|

SOLO Use a delay effect and possibly a pitch-shifter. This probably won't be correct but
is easy enough to ad-lib one.
E|---------------------------------------------|
B|---------------------------------------------|
G|--12-12-12-12-12-12-12-12-12-12-12-12-12-12--|
D|---------------------------------------------|
A|---------------------------------------------|
B|---------------------------------------------|X4

E|--------------------------------------------|
B|--------------------------------------------|
G|--12-14-12--12-14-12--12-14-12-14-12-17-12--|
D|--------------------------------------------|
A|--------------------------------------------|
B|--------------------------------------------|X2

E|-------------|
B|-------------| This note is played during the second half of the song.
G|-------------|
D|-12/~~~~~~~--|
A|-------------|
B|-------------|


After the repeat of the intro
E|--12------12------12-------------10------10------10-------------|
B|------12------12---------------------12------12-----------------|
G|----------------------------------------------------------------|
D|----------------------------------------------------------------|
A|----------------------------------------------------------------|
B|----------------------0-3p0-0-5----------------------0-3p0-0-5--|

The Breakdown is simply the main riff slower, which speeds. There is a little bit of a
thing going on, but its not worth tabbing, as there are several other guitars doin’ stuff.

| /  slide up
| \  slide down
| h  hammer-on
| p  pull-off
| ~  vibrato
| +  harmonic
| x  Mute note
comments
We did not receive enough feedback on this tab! Please rate:
1 2 3 4 5
5 comments total. Showing first comments.
0 reply
[ LiAm ] wrote on October 11 2007, 07:32 pm

Credits:

Microphone Fiend - Tabbed by Sebastian Larsson (monseurfjant@hotmail.com)

Pistol Grip Pump - Tabbed by MutatedPig

Kick Out The Jams - Tabbed by Sinder (spartan130@hotmail.com)

Renegades of Funk - Tabbed by Neal Petrosky (EDravn25@aol.com)

Beautifal World - Tabbed by Joonas Kaselius a.k.a. Ronixis

Im Housin' - Tabbed by By KirK_H@mmeT (necro_cannible@hotmail.com)

In My Eyes - Tabbed by sean (warning136@hotmail.com)

How i Could Just Kill a Man - Tabbed by Unknown

The Ghost Of Tom Joad - Tabbed by Sam LaPolla

Maggies Farm - Tabbed by A.Kapper a.k.a. kapper_23

0 reply
Ryanuofm86 wrote on February 20 2008, 10:23 am

Dude, You need some comments. Well you got me Good Job!
Is that all of the songs on Renegades?

0 reply
[ LiAm ] wrote on February 21 2008, 03:51 am

sure is

I want to post or [tab]
guest
You may want to rate the tab now too:
select rating
Please do not post tabs as comments. Select "correction" instead!