Oops, an error
Loading. Please wait.

Herzeleid Tab

ver2
ver2

Album

Whole song

Interactive

More versions @911Tabs.com
5,434 views 3 this week
1 commentread comment
1 2 3 4 5
worth learning
x 1
Autoscroll
+/-
esc
set tempo
stop
Contributor
Hey! There's an official Ultimate Guitar app which is ideal
for learning songs when you're away from computer. Get the app
WARNING: You are trying to view
                                    content from Ultimate-Guitar.com
                                    in an unauthorized application,
                                    which is prohibited.

                                    Please use an official Ultimate
                                    Guitar Tabs application for iPhone,
                                    iPad or Android to access legitimate
                                    chords, guitar, bass, and drum tabs
                                    from Ultimate-Guitar.com database.

                                    Type "ultimate guitar tabs" in Apple
                                    App Store's or Android Market's
                                    search to find the application.
Band:      Rammstein
Album:     Herzeleid
Tabber:    Slashdotcom//

This Album like all my other tabs is 100% correct, do rate.



1	Wollt Ihr Das Bett In Flammen Sehen
2	Der Meister
3	WeiBes Fleisch
4	Asche Zu Asche
5	Seemann
6	Du Riechst So Gut
7	Das Alte Leid
8	Heirate Mich
9	Herzeleid
10	Laichzeit
11	Rammstein


Song:    Wollt Ihr Das Bett In Flammen Sehen\
Drop C Tunning

Intro
|---------|
|---------|
|-7-8-7---|
|-7-8-7---|1X
|-5-6-5---|
|--0-0-00-|
   . . ..

Riff 1
|-----------|
|-----------|
|-5/7-8-7---|1X
|-5/7-8-7---|
|-3/5-6-5---|
|----0-0-00-|
     . . ..

Play the Intro and Riff 1 4X 

Riff 2
|----------------------------------|
|----------------------------------|
|-10101010101010101010101010101010-| 1X
|-10101010101010101010101010101010-|
|--8-8-8-8-8-8-8-8-8-8-8-8-8-8-8-8-|
|----------------------------------|

Intro 1x Riff 1X
Riff 2 1X
Intro 1X Riff 1X
Riff 2 1X
Intro 1X Riff 1X
Riff 2 1X
Synth

Intro 1X Riff 15X

Riff 2 1X
Intro 1x Riff 1X
Riff 2 1X
Intro 1x Riff 1X
Riff 2 1X

Intro 1X Riff 15X

Riff 2 1X
Intro 1x Riff 1X
Riff 2 1X
Intro 1x Riff 1X
Riff 2 1X
Intro 1x Riff 1X
Riff 2 1X

Sex    7X           1X             1X
|--------------||----------|Sex|----------|
|--------------||----------|7X |----------|
|--------------||----------|   |----------|
|--------------||----------|   |----------|
|-xxxx-3p0-0-0-||-xxxx-3p0-|   |-3333-3p0-|
|-xxxx-3p0-0-0-||-xxxx-3p0-|   |-3333-3p0-|
  ....            ....           ....

|------------------------------|
|------------------------------|
|----------5/7-do the slide 4X-|
|----------5/7-----------------|
|-000000---3/5-----------------|
|-000000-----------------------|
  ………

Riff 2 1X
Intro 1x Riff 1X
Riff 2 1X
Intro 1x Riff 1X
Riff 2 1X
Intro 1x Riff 1X
Riff 2 1X

Intro 1X Riff 27X



\\\\\\\\\\\\\\\\\\\\\
Song:    Der Meister
Down Tune In the C Octave

Intro Riff
|----------------------------------------------|
|----------------------------------------------|
|------9/10------9/10----9/10------9/10----8/9-|
|------9/10------9/10----9/10------9/10----8/9-|8X
|------7/-8------7/-8----7/-8------7/-8----6/7-|
|-0000------0000------00------0000------00-----|
  ....      ....      ..      ....      ..

Riff 1
|---------------------|
|---------------------|
|-9-7-9-7-9-7-9--7/10-|
|-9-7-9-7-9-7-9--7/10-|
|-7-5-7-5-7-5-7--5/-8-|3X
|--0-0-0-0-0-0-00-----|
   . . . . . . ..

Main Riff
|---------------------------------------|
|---------------------------------------|
|------9/10------9/10----9/10------9/10-|
|------9/10------9/10----9/10------9/10-|3X
|------7/-8------7/-8----7/-8------7/-8-|
|-0000------0000------00------0000------|
  ....      ....      ..      ....      

Intro Riff
|----------------------------------------------|
|----------------------------------------------|
|------9/10------9/10----9/10------9/10----8/9-|
|------9/10------9/10----9/10------9/10----8/9-|4X
|------7/-8------7/-8----7/-8------7/-8----6/7-|
|-0000------0000------00------0000------00-----|
  ....      ....      ..      ....      ..

Main Riff
|---------------------------------------|
|---------------------------------------|
|------9/10------9/10----9/10------9/10-|
|------9/10------9/10----9/10------9/10-|4X
|------7/-8------7/-8----7/-8------7/-8-|
|-0000------0000------00------0000------|
  ....      ....      ..      ....      

Riff 1
|---------------------|
|---------------------|
|-9-7-9-7-9-7-9--7/10-|
|-9-7-9-7-9-7-9--7/10-|
|-7-5-7-5-7-5-7--5/-8-|3X
|--0-0-0-0-0-0-00-----|
   . . . . . . ..


Main Riff
|---------------------------------------|
|---------------------------------------|
|------9/10------9/10----9/10------9/10-|
|------9/10------9/10----9/10------9/10-|3X
|------7/-8------7/-8----7/-8------7/-8-|
|-0000------0000------00------0000------|
  ....      ....      ..      ....  

Intro Riff
|----------------------------------------------|
|----------------------------------------------|
|------9/10------9/10----9/10------9/10----8/9-|
|------9/10------9/10----9/10------9/10----8/9-|4X
|------7/-8------7/-8----7/-8------7/-8----6/7-|
|-0000------0000------00------0000------00-----|
  ....      ....      ..      ....      ..

Main Riff
|---------------------------------------|
|---------------------------------------|
|------9/10------9/10----9/10------9/10-|
|------9/10------9/10----9/10------9/10-|4X
|------7/-8------7/-8----7/-8------7/-8-|
|-0000------0000------00------0000------|
  ....      ....      ..      ....  

|---------------------|
|---------------------|
|-9-7-9-7-9-7-9--7/10-|
|-9-7-9-7-9-7-9--7/10-|
|-7-5-7-5-7-5-7--5/-8-|2X
|--0-0-0-0-0-0-00-----|
   . . . . . . ..

|--------------------------|
|--------------------------|
|-11-9-11-9-11-9-11---9/12-|
|-11-9-11-9-11-9-11---9/12-|
|--9-7--9-7--9-7--9---7/10-|2X
|---0-0--0-0--0-0---00-----|
    . .  . .  . .   ..

Intro Riff
|----------------------------------------------|
|----------------------------------------------|
|------9/10------9/10----9/10------9/10----8/9-|
|------9/10------9/10----9/10------9/10----8/9-|4X
|------7/-8------7/-8----7/-8------7/-8----6/7-|
|-0000------0000------00------0000------00-----|
  ....      ....      ..      ....      ..

Main Riff
|---------------------------------------|
|---------------------------------------|
|------9/10------9/10----9/10------9/10-|
|------9/10------9/10----9/10------9/10-|4X
|------7/-8------7/-8----7/-8------7/-8-|
|-0000------0000------00------0000------|
  ....      ....      ..      ....  

End
|-----------------------|
|-----------------------|
|-9-7-9-7-9-7-9--7/10-9-|
|-9-7-9-7-9-7-9--7/10-9-|
|-7-5-7-5-7-5-7--5/-8-7-|
|--0-0-0-0-0-0-00-------|
   . . . . . . ..


\\\\\\\\\\\\\\\\\\\\\\
Song:	WeiBes Fleisch
Down Tune In The C Octave
Two Gits 

Riff 1
|---------------------------------------------------------|
|---------------------------------------------------------|
|----------------------------------------------------<4>b-|
|---------------------------------------------------------|
|----4/5----4/5----4/5----4/5----4/5----4/5----4/5--------|
|-22-2/3-22-2/3-22-2/3-22-2/3-22-2/3-22-2/3-22-2/3-22-----|2X
  ..     ..     ..     ..     ..     ..     ..     ..

Riff 2
|---------------------------------------------------------|
|---------------------------------------------------------|
|------------------------<4>b------------------------<4>b-|
|---------------------------------------------------------|4X
|----4/5----4/5----4/5-----------4/5----4/5----4/5--------|
|-22-2/3-22-2/3-22-2/3-22-----22-2/3-22-2/3-22-2/3-22-----|
  ..     ..     ..     ..     ..     ..     ..     ..

Riff 3
|-----------------------------|
|-----------------------------|
|------------------------<4>b-|
|-----------------------------|
|----4/5----4/5----4/5--------|
|-22-2/3-22-2/3-22-2/3-22-----|
  ..     ..     ..     ..

Riff 2
|---------------------------------------------------------|
|---------------------------------------------------------|
|------------------------<4>b------------------------<4>b-|
|---------------------------------------------------------|4X
|----4/5----4/5----4/5-----------4/5----4/5----4/5--------|
|-22-2/3-22-2/3-22-2/3-22-----22-2/3-22-2/3-22-2/3-22-----|
  ..     ..     ..     ..     ..     ..     ..     ..

Riff 2 (with out the bend)
|-----------------------------------------------------|
|-----------------------------------------------------|
|------------------------<4>b-------------------------|
|-----------------------------------------------------|1X
|----4/5----4/5----4/5-----------4/5----4/5----4/5----|
|-22-2/3-22-2/3-22-2/3-22-----22-2/3-22-2/3-22-2/3-22-|
  ..     ..     ..     ..     ..     ..     ..     ..

Riff 4
|-------------------------------------------|
|-------------------------------------------|
|-------------------------------------------|
|-5--2------7--5--4---------5--2------7--5--|
|-5--2------7--5--4---------5--2------7--5--|
|-3--0------5--3--2------22-3--0------5--3--|
                         ..

Riff 1
|---------------------------------------------------------|
|---------------------------------------------------------|
|----------------------------------------------------<4>b-|
|---------------------------------------------------------|
|----4/5----4/5----4/5----4/5----4/5----4/5----4/5--------|
|-22-2/3-22-2/3-22-2/3-22-2/3-22-2/3-22-2/3-22-2/3-22-----|2X
  ..     ..     ..     ..     ..     ..     ..     ..

Riff 2
|---------------------------------------------------------|
|---------------------------------------------------------|
|------------------------<4>b------------------------<4>b-|
|---------------------------------------------------------|3X
|----4/5----4/5----4/5-----------4/5----4/5----4/5--------|
|-22-2/3-22-2/3-22-2/3-22-----22-2/3-22-2/3-22-2/3-22-----|
  ..     ..     ..     ..     ..     ..     ..     ..

Riff 2 (with out the bend)
|-----------------------------------------------------|
|-----------------------------------------------------|
|------------------------<4>b-------------------------|
|-----------------------------------------------------|1X
|----4/5----4/5----4/5-----------4/5----4/5----4/5----|
|-22-2/3-22-2/3-22-2/3-22-----22-2/3-22-2/3-22-2/3-22-|
  ..     ..     ..     ..     ..     ..     ..     ..

Riff 4
|-------------------------------------------|
|-------------------------------------------|
|-------------------------------------------|
|-5--2------7--5--4---------5--2------7--5--|
|-5--2------7--5--4---------5--2------7--5--|
|-3--0------5--3--2------22-3--0------5--3--|
                         ..

SOLO:
|-----------------------------------------------------------
|-17bu19-17bu19-17bu19-17-14---17bu19-17bu19-17bu19rb17po14-
|-----------------------------------------------------------
|-----------------------------------------------------------
|-----------------------------------------------------------
|-----------------------------------------------------------


----------------------------------------------------------17-
17bu19-17bu19-17bu19-17-14---17bu19-17bu19-17bu19rb17po14----
-------------------------------------------------------------
-------------------------------------------------------------
-------------------------------------------------------------
-------------------------------------------------------------

----------------------------------------------------------
17bu19-17bu19-17bu19-17-14---17bu19-17bu19-17bu19rb17po14-
----------------------------------------------------------
----------------------------------------------------------
----------------------------------------------------------
----------------------------------------------------------

17po14-----14---------------------------------------------------
-------17----17po14-17po14----14--------------------------------
---------------------------16----16po14bu16---------------------
----------------------------------------------------------------
----------------------------------------------------------------
----------------------------------------------------------------

----------------------------------------------------------------
----------------------------------------------------------------
16po14----14----------------------------------------------------
-------16----16po14-16po14----14--------------------------------
---------------------------16----16po14--16~--------------------
----------------------------------------------------------------

under the solo
|---------|
|---------|
|---------|
|---------|16X
|-2-4-5-4-|
|-0-2-3-2-|
  . . . .

Riff 2
|---------------------------------------------------------|
|---------------------------------------------------------|
|------------------------<4>b------------------------<4>b-|
|---------------------------------------------------------|3X
|----4/5----4/5----4/5-----------4/5----4/5----4/5--------|
|-22-2/3-22-2/3-22-2/3-22-----22-2/3-22-2/3-22-2/3-22-----|
  ..     ..     ..     ..     ..     ..     ..     ..

Riff 2 (with out the bend)
|-----------------------------------------------------|
|-----------------------------------------------------|
|------------------------<4>b-------------------------|
|-----------------------------------------------------|1X
|----4/5----4/5----4/5-----------4/5----4/5----4/5----|
|-22-2/3-22-2/3-22-2/3-22-----22-2/3-22-2/3-22-2/3-22-|
  ..     ..     ..     ..     ..     ..     ..     ..

Riff 4
|---------------------------|----------------|
|--------do this 3X --------|----------------|
|---------------------------|----------------|
|-5--2------7--5--4---------|5--2------7--5--|
|-5--2------7--5--4---------|5--2------7--5--|
|-3--0------5--3--2------22-|3--0------5--3--|
                         ..

End Riff
|-----------------------------|
|-----------------------------|
|-----------------------------|
|---------------------------4-|
|-4-7-5-7--4-7-5-7--4-7-5-7-4-|
|-2-5-3-5--2-5-3-5--2-5-3-5-2-|
  . . . .  . . . .  . . . . 


\\\\\\\\\\\\\\\\\\\\\\\\\
Song:      Asche Zu Asche
Down Tune In The C Octave
Some People play this Drop C Do what You wan't


Riff 1	Git 1		Git 2
|-----------------------------||-----------------------------|
|-----------------------------||-----------------------------|
|-----------------------------||-----------------------------|
|-----------------------------||-----------------------------|
|-5p2----7-----8----7---5-----||-----------------------------|
|-3p0-00-5-000-6-00-5-0-3-000-||-3p0-00-5-000-6-00-5-0-3-000-|
      ..   ...   ..   .   ...        ..   ...   ..   .   ...

Riff 2 Git 1		Git 2
|------------------------------||------------------------------|
|------------------------------||------------------------------|
|------------------------------||------------------------------|
|------------------------------||------------------------------|
|-5p2----7-----999-999-999-999-||------------------------------|
|-3p0-00-5-000-777-777-777-777-||-3p0-00-5-000-777-777-777-777-|
      ..   ... ... ... ... ...        ..   ... ... ... ... ...

Riff 1 11X
Riff 2 1X

Riff 1 4X

Riff 1 15X
Riff 2 1X

Bass for Git 8X
|-----------------------------|
|-----------------------------|
|-----------------------------|
|-5-------7-------8-----7---5-|
|-------7-------7-----7-------|
|---0-0-----0-0-----0-----0---|

Riff 1 27X
Riff 2 1X


///////////////////
Song:      Seemann
Down Tune In The C Octave

For this song you have to play fast and with a good distortion for it to sound decent

Riff 1
|---------------------|
|---------------------|
|---------------------|
|---------------------|
|-4----2----0----4----|(when your fast picking the trick is two do it softly
|-5----4----2----4----| don’t just slam it up and down)

Riff 2
|---------|
|---------|
|---------|
|-2-----2-|
|-2-----2-|
|-0—00--0-|
    ..

Order

Riff 1 1X

Riff 1 5X
Riff 2 1X

Riff 1 5X
Riff 2 2X



///////////////////////////////
Song:         Du Reichst So Gut

Tunning is Drop C

Riff 1
|------------------------------------------------------|
|------------------------------------------------------|
|--------------------------------------------------(2)-|
|------------------------------------------------------|
|-0-1--0-1--1-1--1--0-1--0--0-1--0-1--0-1--1--0-1------|
|-0-1--0-1--0-1--1--0-1-—0--0-1--0-1--0-1--1--0-1------|
  . .  . .  . .  .  . .  .  . .  . .  . .  .  . .

Riff 2
|-----------------------------------|
|-----------------------------------|
|-----------------------------------|
|-----------------------------------|
|-5--8--0---0-00-0--5--8--0---0-0-0-|
|-5--8--0---0-00-0--5--8-—0---0-0-0-|
            . .. .            . . .

Riff 3
|---------------------------------------------------------------------|
|---------------------------------------------------------------------|
|---------------------------------------------------------------------|
|----------5--3--2--------------------------------------------5--3--2-|
|-5--8--0--3--1--0--x-x--5--7--0--x-x--5—-7--0--x-x--5--7--0--3--1—-0-|
|-5--8--0-----------x-x--5--7--0--x-x--5--7--0--x-x--5--7--0----------|


Riff 1 4X
Riff 1 4X
Riff 1 4X
Riff 2 1X
Riff 3 1X
Riff 1 4X
Riff 2 1X
Riff 3 1X

Solo
|-------------------------------------------------------------------|
|-------------------------------------------------------------------|
|-12p-12p-12p-12p-11p-11p-11p-12p-----------------------------------|4X
|---------------------------------12p-12p-12p-12p-13p-12-p-13-p-12p-|
|-------------------------------------------------------------------|
|-------------------------------------------------------------------|

Riff 2 1X

End 2X
|----------------------------------------------|
|----------------------------------------------|
|----------------------------------------------|
|--------------------------------------5--3--2-|
|-5--7--0--x-x--5—-7--0--x-x--5--7--0--3--1-—0-|
|-5--7--0--x-x--5--7--0--x-x--5--7--0----------|


//////////////////
Song:	Das alte Leid

Down Tune In The C Octave
Two Git Sticks

Main Riff
|--------------------------|
|--------------------------|
|--------------------------|
|-2-4--2-4----4--2-4-/7--2-|
|-2-4--2-4----4--2-4-/7--2-|
|-0-2--0-2--0-2--0-2-/5--0-| 8X
            .

Riff 1
|----------------|   |-------|
|----------------|   |-------|
|----------------|   |-------|
|----------------|   |-------|
|-2-2----2-2-2-2-|   |-------|
|-0-0----0-0-0-0-| 4X|-<3>br-|1X
  . .    . . . .

|----------------|
|----------------|
|----------------|
|----------------|
|-2-2----2-2-2-2-|
|-0-0----0-0-0-0-| 4X
  . .    . . . .

Main Riff  4X

Riff 2
|----------------|     |-------|
|----------------|     |-------|
|----------------|     |-------|
|----------------|     |-------|
|-2-2----2-2-2-2-|     |-------|
|-0-0----0-0-0-0-| 4x  |-<3>br-|1X
  . .    . . . .

|----------------|     |--------------|
|----------------|     |--------------|
|----------------|     |--------------|
|----------------|     |------------2-|
|-2-2----2-2-2-2-|     |-2-2----2-2-2-|
|-0-0----0-0-0-0-| 3x  |-0-0----0-0-0-|
  . .    . . . .         . .    . .

Main Riff 18x
Riff 3
|---------------|     |---------------|
|---------------|     |---------------|
|---------------|     |---------------|
|---------------|     |-------------4-|
|---------------|     |-------------4-|
|-0-2--0-2--0-2-| 3x  |-0-2--0-2--0-2-|
  . .  . .  . .         . .  . .  .
Bass for a while

|-------|
|-------|
|-------|
|-----2-|
|-2-2-2-|
|-0-0-0-|
  . .

Main Riff- 24X under solo

Solo 
|-------------------------|---------|
|-17p14h17p14h17p14h17p14-|-14~-----|
|-------------------------|---------|
|---Do This For a while---|---------|
|----Beefed with effects--|---------|
|-------------------------|---------|

|---------------------------------------------
|-14\12-14\12-14\12-14\12-14\12-14\12---------
|--------x-----------x-----------x------------
|-------11\-9-------11\-9-------11\-9-10p9-9~-
|---------------------------------------------
|---------------------------------------------

----------------------------------------------
-14\12-14\12-14\12-14\12-14\12-14\12----------
--------x-----------x-----------x-------------
-------11\-9-------11\-9-------11\-9-9/12-11~-
----------------------------------------------
----------------------------------------------

-----------------------------------------------
-14\12-14\12-14\12-14\12-14\12-14\12-----------
--------x-----------x-----------x--------------
-------11\-9-------11\-9-------11\-9-10p9-10p9-
-----------------------------------------------
-----------------------------------------------

----------------------------------------------|
-14\12-14\12-14\12-14\12-14\12-14\12----------|
--------x-----------x-----------x-------------|5X
-------11\-9-------11\-9-------11\-9-9/12-11~-|
----------------------------------------------|
----------------------------------------------|

|------------------------------|
|------------------------------|
|------------------------------|
|-9/11~------------------------|
|------------------------------|
|------------------------------|



////////////////////
Song:	Heirate mich

Two Gits Down Tune In The C Octave

Main Riff
|------------------------------|  |-----------------|
|------------------------------|  |-----------------|
|------------------------------|  |-----------------|
|-2----2----2----2---5\4---4/5-|3X|-2----2----2---2-|
|-2----2----2----2---5\4---4/5-|  |-2----2----2---2-|1X    Play 4X
|-0-00-0-00-0-00-0-0-3\2-0-2/3-|  |-0-00-0-00-0-0-0-|
    ..   ..   ..   .     .            ..   ..   .
Riff 1
|----------------------|   |-------------|
|----------------------|   |-------------|
|-4``````--x-4-x-5---2-|   |-4---------x-|
|-4``````--x-4-x-5---2-|3X |-4---------x-|
|-2``````--x-2-x-3---0-|   |-2---------x-|
|----------------------|   |-------------|

Main Riff 2X
Riff 1
Main Riff 2X

Solo
|------------------------------------------------------------------
|-5-------<5>~-----------------------------------------------------
|-7b---------------8~------5-5/6~------6h7p6-----------------------
|--------------------------------------------<7>~------------6-8p6-
|--------------------------------------------------------6h8-------
|--------------------------------------------------5-7-8-----------
                                                   . . . . . . . .

------------------------------------------------------------------------
------------------------------14-14b-<14>b--r~--16br-14\12-14-----------
-----6h7-6~---------------/13-------------------------------------------
-8h9------------7/9~-------------------------------------------11-11~---
------------------------------------------------------------------------
------------------------------------------------------------------------

----------------------------------------------------------------------------|
--------------------------14--13~---13h14p13-11h13p11--------------12b------|
--10-10-13----13----13--------------------------------13/14\13~-------------|
--11-11----11----11----11---------------------------------------------------|
----------------------------------------------------------------------------|
----------------------------------------------------------------------------|

Main Riff 2X


/////////////////////
Sond:      Herzeleid

All Credits for this song go to Talirak I have
Just converted it to a formula

Down Tune In The C Octave
Two Git Sticks

Main Riff
|-------------------------|
|-------------------------|
|-------------------------|
|--------------4--4-------|16X
|----4--4-4--4-4--3-------|
|----2--3-2--2-3--x--2----|
     .  . .  .       .

Riff 1
|-----------------------------|
|-----------------------------|
|-----------------------------|4X
|--2--4----4----4--4----------|
|--2--4----4----4--3--4-------|
|--0--2--2-2--2-3--x--2-2-2-2-|
         .    .       . . . .

Main Riff 16X
Riff 1 8X

Riff 2
|-------------------------|
|-------------------------|
|-------------------------|2X
|--------------8--8-------|
|----8--8-8--8-8--7-------|
|----6--7-6--6-7--x--6----|
     .  . .  .       .
Riff 3
|-------------------------|
|-------------------------|
|-------------------------|2X
|--------------7--7-------|
|----7--7-7--7-7--6-------|
|----5--6-5--5-6--x--5----|
     .  . .  .       .

Riff 2 2X
Riff 3 2X

Riff 4
|----------------------------------|
|----------------------------------|
|----------------------------------|
|----------------------------------|2X
|--7/8-----7/8-7/8-7/8-------------|
|--5/6-6-6-5/6-5/6-5/6-6-6-6-6-6-6-|
       . .             . . . . . .


Riff 5
|----------------------------------|
|----------------------------------|
|----------------------------------|
|----------------------------------|2X
|--5/7-----5/7-5/7-5/7-------------|
|--3/5-5-5-3/5-3/5-3/5-5-5-5-5-5-5-|
       . .             . . . . . . 


Riff 4 2X
Riff 5 2X
Riff 5 1X

|-------------------|
|-------------------|
|-------------------|
|--9````------------|
|--7````------------|
|-------------------|

Main Riff 9X

Solo
|----------------------------------------------------
|--------------------------------<5>~----------------
|-4/6-6--------------------------------6-------------
|-4/6-6----------------4---6p4-4---------4-6-4---4h6-
|------------------------7---------------------7-4h6-
|----------------------------------------------------
                       . .     .       . . . .

 ---------------------------------------------------------------------|
 ---------------------------------------------------------------------|
 ------xx-4/6-6----------------6b(8)-r--(6)b(8)~---6b---8\--6b--8\-6b-|
 ------xx-4/6-6-------------------------------------------------------|
 ------xx-------------------------------------------------------------|
 ---------------------------------------------------------------------|

Riff 1 8X
Main Riff 1X



\\\\\\\\\\\\\\\\\\\\\\\\\
Song:		Laichzeit

Two Git Sticks

Down Tune In The C Octave

Riff
|--------------|   |--------------|
|--------------|   |--------------|
|--------------|7X |--------------|1X
|--------------|   |--------------|
|-444-444-3475-|   |-444-444-3475-|
|-222-222-1253-|   |-222-222-1253-|
| ... ... ....       ... ... .    |
|--------------|   |---------------|
|--------------|   |---------------|
|--------------|7X |---------------|1X
|--------------|   |---------------|
|-444-444-3475-|   |-444-444-34754-|
|-222-222-1253-|   |-222-222-12532-|
  ... ... ....       ... ... .

Riff
|--------------|   |---------------|
|--------------|   |---------------|
|--------------|7X |---------------|1X
|--------------|   |---------------|
|-444-444-3475-|   |-444-444-34754-|
|-222-222-1253-|   |-222-222-12532-|
  ... ... ....       ... ... .

Riff
|--------------|   |--------------|
|--------------|   |--------------|
|--------------|7X |--------------|1X
|--------------|   |--------------|
|-444-444-3475-|   |-444-444-3475-|
|-222-222-1253-|   |-222-222-1253-|
| ... ... ....       ... ... .    |
|--------------|   |--------------|
|--------------|   |--------------|
|--------------|7X |--------------|1X
|--------------|   |--------------|
|-444-444-3475-|   |-444-444-3475-|
|-222-222-1253-|   |-222-222-1253-|
  ... ... ....       ... ... .


Chorus
|------------------|   |-----------|
|------------------|   |-----------|
|------------------|3X |-----------|1X
|-6-66-6-6--6-10-7-|   |-6-666-5-4-|
|-6-66-6-6--6-10-7-|   |-6-666-5-4-|
|-4-44-4-4--4-8--5-|   |-4-444-3-2-|
|                                  |
|------------------|   |-----------------|
|------------------|   |-----------------|
|------------------|3X |-----------------|1X
|-6-66-6-6--6-10-7-|   |-----------------|
|-6-66-6-6--6-10-7-|   |----------7777-4-|
|-4-44-4-4--4-8--5-|   |-44444444-5555-2-|
                         ........ .... .
Riff
|--------------|   |--------------|
|--------------|   |--------------|
|--------------|7X |--------------|1X
|--------------|   |--------------|
|-444-444-3475-|   |-444-444-3475-|
|-222-222-1253-|   |-222-222-1253-|
| ... ... ....       ... ... .    |
|--------------|   |--------------|
|--------------|   |--------------|
|--------------|7X |--------------|1X
|--------------|   |--------------|
|-444-444-3475-|   |-444-444-3475-|
|-222-222-1253-|   |-222-222-1253-|
| ... ... ....       ... ... .    |
|--------------|   |--------------|
|--------------|   |--------------|
|--------------|7X |--------------|1X
|--------------|   |--------------|
|-444-444-3475-|   |-444-444-3475-|
|-222-222-1253-|   |-222-222-1253-|
  ... ... ....       ... ... .

Chorus
|------------------|   |-----------|
|------------------|   |-----------|
|------------------|3X |-----------|1X
|-6-66-6-6--6-10-7-|   |-6-666-5-4-|
|-6-66-6-6--6-10-7-|   |-6-666-5-4-|
|-4-44-4-4--4-8--5-|   |-4-444-3-2-|
|                                  |
|------------------|   |-----------------|
|------------------|   |-----------------|
|------------------|3X |-----------------|1X
|-6-66-6-6--6-10-7-|   |-----------------|
|-6-66-6-6--6-10-7-|   |----------7777-4-|
|-4-44-4-4--4-8--5-|   |-44444444-5555-2-|
                         ........ .... .
End Chorus
|--------------------------------------------------------------|
|--------------------------------------------------------------|
|--------------------------------------------------------------|4X
|-----------------------------3-33-3-3--3-7-4-—3-33-3-3--3-7-4-|
|-444-444-3475--444-444-3475--3-33-3-3--3-7-4-—3-33-3-3--3-7-4-|
|-222-222-1253--222-222-1253--1-11-1-1--1-5-2--1-11-1-1--1-5-2-|
  ... ... ....  ... ... ....

|---------------------------------------------|
|---------------------------------------------|
|---------------------------------------------|
|---------------------------------------------|
|-444-444--2--2--444-444--2—-2--444-444—2—2—4-|
|-222-222--0-—0--222-222--0--0--222-222—0—0—2-|
  ... ...  .  .  ... ...  .  .  ... ... . . .



/////////////////////
Song:       Rammstein

Two Gits Down Tune In The C Octave

Main Riff
|-------------------------------|
|-------------------------------|
|----9/10----9/10----9/10—-10/9-|
|----9/10----9/10----9/10-—10/9-|12X
|----7/-8----7/-8----7/-8---8/7-|
|-00------00------00------------|
  ..      ..      ..

Riff 1
|-------------------|
|-------------------|
|-5-----------------|
|-5---2---------5-2-|2X
|-3---2---2222225-2-|
|-----0---0000003-0-|
          ......

Main Riff 8X

Solo 1 (Good Luck Try to get the same sound effect)
|------------------------------------------
|--------------------------------7/9--9—9--
|----9----9----9--12--12-12-12/7-7/9--9--9-
|------------------------------------------
|------------------------------------------
|------------------------------------------

-------------------------------------------------
-------------------------------------------------
-9/14-14---14/17-17-17/9--9----9/12-12-/7--7---7-
-x/-x--x----x--x--x—-x/x--x----x/-x--x-/x--x---x-
-7/12-12---12/15-15-15/7--7----7/10-10-/7--5---5-
-------------------------------------------------

---------------------------------------|
---------------------------------------|
-9/9--9----9----4--4--4--4--4--4--5--5-|
-x/x--x----x----x--x--x--x--x--x--x--x-|Main Riff under solo
-5/7--7----7----2--2--2--2--2--2--3--3-|
---------------------------------------|

Main Riff 10X
Riff 1 1X


Solo 2
|-7p-9p-10p-9p-7p-9p-10p-9p-7p-9p-10p-9p-7p-9p-10p-9p-|3X
|-----------------------------------------------------|
|-----------------------------------------------------|
|-----------------------------------------------------|
|-----------------------------------------------------|
|-----------------------------------------------------|

|-7p-9p-10p-9p-7p-9p-10p-9p---------------------------|1X
|---------------------------7p-8p-10p-8p-5p-7h8p7-----|
|-----------------------------------------------------|
|-----------------------------------------------------|
|-----------------------------------------------------|
|-----------------------------------------------------|

|----------------------------------------------------
|----7h8p7-------------------------------------------
|----------------9--/12-12-12/7—7/9--9---9/14-14-14--
|----------------x--/-x--x--x/x—x/x--x---x/-x--x--x--
|----------------7--/10-10-10/5—5/7--7---7/12-12-12--
|----------------------------------------------------

-----------------------------------------------------------
-----------------------------------------------------------
-14/17--17--17--17—17/9--9--9--9---9--9--9---12--12--12--7-
--x/-x---x---x---x--x/x--x--x--x---x--x--x----x---x---x—x--
-12/15--15--15--15—15/7--7--7--7---7--7--7---10--10--10--5-
-----------------------------------------------------------

----------------------------------------------------------
----------------------------------------------------------
-7—7/9--9--9--9--9--9-—9\4--4---4--5--5--5--5—5/9--9--9--9
-x—x/x--x--x--x--x--x-—x\x--x---x--x--x--x--x—x/x--x--x--x
-5—5/7--7--7--7--7--7--7\2--2---2--3--3--3--3—3/7--7--7--7
----------------------------------------------------------

--------------------------------------------------------------
--------------------------------------------------------------
-9--9--9--12--12--12--7--7--7—7/9--9--9--9---9--14--14--14--14
-x--x--x---x---x---x--x--x--x—x/x--x--x--x---x---x---x---x---x
-7--7--7--10--10--10--5--5--5—5/7--7--7--7---7--12--12--12--12
--------------------------------------------------------------

-------------------------------------------------------------
-------------------------------------------------------------
-17--17--17--17—17\9--9--9---9--9--9--12--12--12--7--7--7—7/9
--x---x---x---x--x\x--x--x---x--x--x---x---x---x--x--x--x—x/x
-15--15--15--15—15\7--7--7---7--7--7--10--10--10--5--5--5—5/7
-------------------------------------------------------------

--------------------------------------------------------------------|
--------------------------------------------------------------------|
-9--9--9--9---9/4--4--4--4--5--5--5--5--9--9--9--9--9--9--9--9----9-|
-x--x--x--x---x/x--x--x--x--x--x--x--x--x--x--x--x--x--x--x--x----9-|
-7--7--7--7---7/2--2--2--2--3--3--3--3--7--7--7--7--7--7--7--7----7-|
---------------------------------------------------------------00---|
                                                               ..

Thats it, Lengthy but accurate  Give it 5*
Have Fun

comments
We did not receive enough feedback on this tab! Please rate:
print report bad tab
1 2 3 4 5
1 comment total.
0 reply
Nuums wrote on May 17 2006, 08:27 am

dude, you said this tab was "100% correct"... well it isn't.. it's more like 10% ...
It's not Drop C! it is Drop D! And in asche zu asche it's standard E-tuning! plus, you write down e-powerchords for dropped C.. doesn't make sense... ? if it is drop C or D, it is :
D--0-1-2-3-4--
A--0-1-2-3-4--
D--0-1-2-3-4--

etc... bad tab!

I want to post or [tab]
guest
You may want to rate the tab now too:
select rating
Please do not post tabs as comments. Select "correction" instead!