Oops, an error
Loading. Please wait.

Mutter Tab

ver1
ver1
More versions @911Tabs.com
36,462 views 27 this week
no commentswrite comment
1 2 3 4 5
accurate
x 4
Autoscroll
+/-
esc
set tempo
stop
Contributor
Hey! There's an official Ultimate Guitar app which is ideal
for learning songs when you're away from computer. Get the app
WARNING: You are trying to view
                                    content from Ultimate-Guitar.com
                                    in an unauthorized application,
                                    which is prohibited.

                                    Please use an official Ultimate
                                    Guitar Tabs application for iPhone,
                                    iPad or Android to access legitimate
                                    chords, guitar, bass, and drum tabs
                                    from Ultimate-Guitar.com database.

                                    Type "ultimate guitar tabs" in Apple
                                    App Store's or Android Market's
                                    search to find the application.
Artist: Ramms+ein
Album: Mutter
Tab by: Beberasmus bebe_4048@hotmail.com

GREAT BAND, GREAT ALBUM


........................................1. MEIN HERZ BRENNT
DROP D

Intro :x2
E|-------------------------------------------------------------------|
B|-------------------------------------------------------------------|
G|--5-5-5-5---5-5-5-5---5-5-5-5-5-5-5-5---5-5-5-5---5-5-5-5-5-5-5-5--|
D|--5-5-5-5---5-5-5-5---5-5-5-5-5-5-5-5---5-5-5-5---5-5-5-5-5-5-5-5--|
A|--3-3-3-3---3-3-3-3---3-3-3-3-3-3-3-3---3-3-3-3---3-3-3-3-3-3-3-3--|
D|-------------------------------------------------------------------|

E|------------------------------------------------|
B|------------------------------------------------|
G|-5-5-5-5---5-5-5-5-5-5-5-5-5---5-5-5-5--x-x-5/6-|
D|-5-5-5-5---5-5-5-5-5-5-5-5-5---5-5-5-5--x-x-x/x-|
A|-3-3-3-3---3-3-3-3-3-3-3-3-3---3-3-3-3--x-x-3/4-|
D|------------------------------------------------|

Verse:
E|---------------------------------------|
B|---------------------------------------|
G|---------------------------------------|
D|-1h3-------x-x-x-1h3-------x-x-x-x-1h3-|
A|-1h3-3-3-3-x-x-x-1h3-3-3-3-x-x-x-x-1h3-|x8
D|---------------------------------------|

Chorus:
E|-------------------------------------------------------------------------------------------------------------|
B|-------------------------------------------------------------------------------------------------------------|
G|-5-5-5-5--5-5-5-5--5-5-5-5-----------------------------------------------------------------------------------|
D|-5-5-5-5--5-5-5-5--5-5-5-5--3-3-3-3---3-3-3-3--3-3-3-3--6-6-6-6--6-6-6-6--6-6-6-6--5-5-5-5--5-5-5-5--5-5-5-5-|
A|-3-3-3-3--3-3-3-3--3-3-3-3--3-3-3-3---3-3-3-3--3-3-3-3--6-6-6-6--6-6-6-6--6-6-6-6--5-5-5-5--5-5-5-5--5-5-5-5-|
D|----------------------------3-3-3-3---3-3-3-3--3-3-3-3--6-6-6-6--6-6-6-6--6-6-6-6--5-5-5-5--5-5-5-5--5-5-5-5-|

Then:
E|-------------------------------------------------------------------|
B|-------------------------------------------------------------------|
G|--5-5-5-5---5-5-5-5---5-5-5-5-5-5-5-5---5-5-5-5---5-5-5-5-5-5-5-5--|
D|--5-5-5-5---5-5-5-5---5-5-5-5-5-5-5-5---5-5-5-5---5-5-5-5-5-5-5-5--|
A|--3-3-3-3---3-3-3-3---3-3-3-3-3-3-3-3---3-3-3-3---3-3-3-3-3-3-3-3--|
D|-------------------------------------------------------------------|

E|------------------------------------------------|
B|------------------------------------------------|
G|-5-5-5-5---5-5-5-5-5-5-5-5-5---5-5-5-5--x-x-5/6-|
D|-5-5-5-5---5-5-5-5-5-5-5-5-5---5-5-5-5--x-x-x/x-|
A|-3-3-3-3---3-3-3-3-3-3-3-3-3---3-3-3-3--x-x-3/4-|
D|------------------------------------------------|

Verse 2:
E|---------------------------------------|
B|---------------------------------------|
G|---------------------------------------|
D|-1h3-------x-x-x-1h3-------x-x-x-x-1h3-|
A|-1h3-3-3-3-x-x-x-1h3-3-3-3-x-x-x-x-1h3-|x8
D|---------------------------------------|

Chorus:
E|-------------------------------------------------------------------------------------------------------------|
B|-------------------------------------------------------------------------------------------------------------|
G|-5-5-5-5--5-5-5-5--5-5-5-5-----------------------------------------------------------------------------------|
D|-5-5-5-5--5-5-5-5--5-5-5-5--3-3-3-3---3-3-3-3--3-3-3-3--6-6-6-6--6-6-6-6--6-6-6-6--5-5-5-5--5-5-5-5--5-5-5-5-|
A|-3-3-3-3--3-3-3-3--3-3-3-3--3-3-3-3---3-3-3-3--3-3-3-3--6-6-6-6--6-6-6-6--6-6-6-6--5-5-5-5--5-5-5-5--5-5-5-5-|
D|----------------------------3-3-3-3---3-3-3-3--3-3-3-3--6-6-6-6--6-6-6-6--6-6-6-6--5-5-5-5--5-5-5-5--5-5-5-5-|

Then :x2
E|-------------------------------------------------------------------|
B|-------------------------------------------------------------------|
G|--5-5-5-5---5-5-5-5---5-5-5-5-5-5-5-5---5-5-5-5---5-5-5-5-5-5-5-5--|
D|--5-5-5-5---5-5-5-5---5-5-5-5-5-5-5-5---5-5-5-5---5-5-5-5-5-5-5-5--|
A|--3-3-3-3---3-3-3-3---3-3-3-3-3-3-3-3---3-3-3-3---3-3-3-3-3-3-3-3--|
D|-------------------------------------------------------------------|

E|------------------------------------------------|
B|------------------------------------------------|
G|-5-5-5-5---5-5-5-5-5-5-5-5-5---5-5-5-5--x-x-5/6-|
D|-5-5-5-5---5-5-5-5-5-5-5-5-5---5-5-5-5--x-x-x/x-|
A|-3-3-3-3---3-3-3-3-3-3-3-3-3---3-3-3-3--x-x-3/4-|
D|------------------------------------------------|

Presolo :
E|------------|
B|------------|
G|-x-x-5-4-2~-|
D|-x-x-x-x-0~-|
A|-x-x-3-2-0~-|
D|------------|

Solo: (sound like harmonics) x2
E|-------------------------------------|
B|-------------------------------------|
G|-------------------------------------|
D|----------------------5-5-5-5/7-7-7--|
A|-7-7-7-7-7/8-8-8-8-8^----------------|x3
D|-------------------------------------|

E|----------------------------------------|
B|----------------------------------------|
G|----------------------------------------|
D|-/10-10-10-10/12-12-12-12\10-10\8-8\7-7-|
A|----------------------------------------|
D|----------------------------------------|

Guitar 2:
e|---------------------------------------------------------------------------------------------------------|
B|---------------------------------------------------------------------------------------------------------|
G|---------------------------------------------------------------------------------------------------------|
D|-7-7-7-7--7-7-7-7--7-7-7-7-5-5-5-5--5-5-5-5--5-5-5-5--8-8-8-8--8-8-8-8--8-8-8-8--7-7-7-7--7-7-7--7-7-7-7-|
A|-5-5-5-5--5-5-5-5--5-5-5-5-5-5-5-5--5-5-5-5--5-5-5-5--8-8-8-8--8-8-8-8--8-8-8-8--7-7-7-7--7-7-7--7-7-7-7-|
D|-0-0-0-0--0-0-0-0--0-0-0-0-5-5-5-5--5-5-5-5--5-5-5-5--8-8-8-8--8-8-8-8--8-8-8-8--7-7-7-7--7-7-7--7-7-7-7-|

Then :x2
E|-------------------------------------------------------------------|
B|-------------------------------------------------------------------|
G|--5-5-5-5---5-5-5-5---5-5-5-5-5-5-5-5---5-5-5-5---5-5-5-5-5-5-5-5--|
D|--5-5-5-5---5-5-5-5---5-5-5-5-5-5-5-5---5-5-5-5---5-5-5-5-5-5-5-5--|
A|--3-3-3-3---3-3-3-3---3-3-3-3-3-3-3-3---3-3-3-3---3-3-3-3-3-3-3-3--|
D|-------------------------------------------------------------------|

E|------------------------------------------------|
B|------------------------------------------------|
G|-5-5-5-5---5-5-5-5-5-5-5-5-5---5-5-5-5--x-x-5/6-|
D|-5-5-5-5---5-5-5-5-5-5-5-5-5---5-5-5-5--x-x-x/x-|
A|-3-3-3-3---3-3-3-3-3-3-3-3-3---3-3-3-3--x-x-3/4-|
D|------------------------------------------------|


........................................2. LINKS 2-3-4...............................................

Standar

Intro/Chorus:
E|----------------------------------------|
B|----------------------------------------|
G|----------------------------------------|
D|-----2-2------2-2------2-2-----5/7-8----|
A|-----2-2------2-2------2-2-----5/7-8----|x3
E|-0-0-0-0--0-0-0-0--0-0-0-0--0--3/5-6----|

E|-------------------------------------|
B|-------------------------------------|
G|-------------------------------------|
D|-----2-2------2-2------2-2-x-x-8-8-8-|
A|-----2-2------2-2------2-2-x-x-8-8-8-|
E|-0-0-0-0--0-0-0-0--0-0-0-0-x-x-6-6-6-|

E|----------------------------------------|
B|----------------------------------------|
G|----------------------------------------|
D|-----2-2------2-2------2-2-----5/7-8----|
A|-----2-2------2-2------2-2-----5/7-8----|x2
E|-0-0-0-0--0-0-0-0--0-0-0-0--0--3/5-6----|

Bridge:
E|-----------------------|
B|-----------------------|
G|-----------------------|
D|-2~--5~--7~--7-7-7-7-8-|
A|-2~--5~--7~--7-7-7-7-8-|X2
E|-0~--3~--5~--5-5-5-5-6-|

Then:(clean)
E|---------------------------------|
B|---------------------------------|
G|---------------------------------|
D|-----2------2------2-----5/7--8--|
A|-----2------2------2-----5/7--8--|x9
E|-0-0-0--0-0-0--0-0-0--0--3/5--6--|

Then:
E|----------------------------------------|
B|----------------------------------------|
G|----------------------------------------|
D|-----2-2------2-2------2-2-----5/7-8----|
A|-----2-2------2-2------2-2-----5/7-8----|x4
E|-0-0-0-0--0-0-0-0--0-0-0-0--0--3/5-6----|

Solo:x2
E|--------------7p0-----------------------7p0----------------------|
B|-7p0-8p0-10p0-----10p0-8p0-7p0-8p0-10p0------10p0-8p0-7p0-8p0----|
G|--------------------------------------------------------------9~-|
D|-----------------------------------------------------------------|
A|-----------------------------------------------------------------|
E|-----------------------------------------------------------------|

E|--------------7p0-----------------------7p0------------------------|
B|-7p0-8p0-10p0-----10p0-8p0-7p0-8p0-10p0-----10p0-8p0-7p0-8p0-8/12b-|
G|-------------------------------------------------------------------|
D|-------------------------------------------------------------------|
A|-------------------------------------------------------------------|
E|-------------------------------------------------------------------|

Guitar 2:
E|----------------------------------------|
B|----------------------------------------|
G|----------------------------------------|
D|-----2-2------2-2------2-2-----5/7-8----|
A|-----2-2------2-2------2-2-----5/7-8----|x4
E|-0-0-0-0--0-0-0-0--0-0-0-0--0--3/5-6----|

End:
E|-----------------------|
B|-----------------------|
G|-----------------------|
D|-2~--5~--7~--7-7-7-7-8-|
A|-2~--5~--7~--7-7-7-7-8-|X4
E|-0~--3~--5~--5-5-5-5-6-|

..........................................3. SONNE....................................................
Drop D


Intro:
E|-----------------------------------------------------------|
B|-----------------------------------------------------------|
G|-----------------------------------------------------------|
D|-0--6-0-6-5-0---0--6-0-6-0---0--6-0-6-5-0---0--6-0-6-5-5-5-|
A|-0--6-0-6-5-0---0--6-0-6-0---0--6-0-6-5-0---0--6-0-6-5-5-5-|X2
D|-0--6-0-6-5-0---0--6-0-6-0---0--6-0-6-5-0---0--6-0-6-5-5-5-|

Verse:x3
E|---------------------------|
B|---------------------------|
G|---------------------------|
D|-0--6-0-6-5-0---0--6-0-6-0-|
A|-0--6-0-6-5-0---0--6-0-6-0-|
D|-0--6-0-6-5-0---0--6-0-6-0-|


Chorus:
E|------------------------|
B|------------------------|
G|-4--4--------------5--5-|
D|-4--4--2--2--0--0--5--5-|
A|-2--2--2--2--0--0--3--3-|x2
D|-------2--2--0--0-------|

E|------------------------|
B|------------------------|
G|-------4--4-------------|
D|-2--2--4--4--5--5--4--4-|
A|-2--2--2--2--5--5--4--4-|x2
D|-2--2--------5--5--4--4-|

Then:
E|-----------------------------------------------------------|
B|-----------------------------------------------------------|
G|-----------------------------------------------------------|
D|-0--6-0-6-5-0---0--6-0-6-0---0--6-0-6-5-0---0--6-0-6-5-5-5-|
A|-0--6-0-6-5-0---0--6-0-6-0---0--6-0-6-5-0---0--6-0-6-5-5-5-|
D|-0--6-0-6-5-0---0--6-0-6-0---0--6-0-6-5-0---0--6-0-6-5-5-5-|

Verse 2:x2
E|---------------------------|
B|---------------------------|
G|---------------------------|
D|-0--6-0-6-5-0---0--6-0-6-0-|
A|-0--6-0-6-5-0---0--6-0-6-0-|
D|-0--6-0-6-5-0---0--6-0-6-0-|

Chorus:x2
E|------------------------|
B|------------------------|
G|-4--4--------------5--5-|
D|-4--4--2--2--0--0--5--5-|
A|-2--2--2--2--0--0--3--3-|x2
D|-------2--2--0--0-------|

E|------------------------|
B|------------------------|
G|-------4--4-------------|
D|-2--2--4--4--5--5--4--4-|
A|-2--2--2--2--5--5--4--4-|x2
D|-2--2--------5--5--4--4-|

Final Chorus:x2
E|------------------------|
B|------------------------|
G|-4--4--------------5--5-|
D|-4--4--2--2--0--0--5--5-|
A|-2--2--2--2--0--0--3--3-|x2
D|-------2--2--0--0-------|

E|------------------------|
B|------------------------|
G|-------4--4-------------|
D|-2--2--4--4--5--5--4--4-|
A|-2--2--2--2--5--5--4--4-|x2
D|-2--2--------5--5--4--4-|

..........................................4. ICH WILL
DROP D

Intro:X2
E|----------------------------|  |--------------------------|
B|----------------------------|  |--------------------------|
G|----------------------------|  |--------------------------|
D|---0-----0----0-----0-----0-|  |---0-----0--5-5--3-3--0-0-|
A|-5-5-5-5-5--5-5-5-5-5-5-5-5-|X3|-5-5-5-5-5--5-5--3-3--0-0-|
D|-0-0-0-0-0--0-0-0-0-0-0-0-0-|  |-0-0-0-0-0--5-5--3-3--0-0-|

Verse 2:
E|-----------|
B|-----------|
G|-----------|
D|-0-0-0-0-0-| x8
A|-5-5-5-5-5-|
D|-0-0-0-0-0-|

Chorus:x2
E|---------------------------------|
B|---------------------------------|
G|---------------------------------|
D|-0-0-0-0-0-0-0-0-8-8-8-8-5-5-7-7-|
A|-0-0-0-0-0-0-0-0-8-8-8-8-5-5-7-7-|
D|-0-0-0-0-0-0-0-0-8-8-8-8-5-5-7-7-|

E|-------------------------------------------|
B|-------------------------------------------|
G|-------------------------------------------|
D|-0-0-0-0-0-0-0-0—8-8-8-8-10-10-7-7---|
A|-0-0-0-0-0-0-0-0-8-8-8-8-10-10-7-7---------|
D|-0-0-0-0-0-0-0-0-8-8-8-8-10-10-7-7---------|

Then:
E|----------------------------|  |--------------------------|
B|----------------------------|  |--------------------------|
G|----------------------------|  |--------------------------|
D|---0-----0----0-----0-----0-|  |---0-----0--5-5--3-3--0-0-|
A|-5-5-5-5-5--5-5-5-5-5-5-5-5-|X3|-5-5-5-5-5--5-5--3-3--0-0-|
D|-0-0-0-0-0--0-0-0-0-0-0-0-0-|  |-0-0-0-0-0--5-5--3-3--0-0-|

Bridge:x2
E|----------------------------------------------------------------|
B|----------------------------------------------------------------|
G|----------------------------------------------------------------|
D|-----0-------0-------0-------0--------8-------8-------8-------8-|
A|---0---0---0---0---0---0---0---0----8---8---8---8---8---8---8-8-|
D|-0-------0-------0-------0--------8-------8-------8-------8---8-|
 |
E|--------------------------------------------------------------------|
B|--------------------------------------------------------------------|
G|--------------------------------------------------------------------|
D|-7------5-------5-------5-------5-------7-------7-------7-------7---|
A|-7----5---5---5---5---5---5---5---5---7---7---7---7---7---7---7---7-|
D|-7--5-------5-------5-------5-------7-------7-------7-------7-------|

Chorus:x2
E|---------------------------------|
B|---------------------------------|
G|---------------------------------|
D|-0-0-0-0-0-0-0-0-8-8-8-8-5-5-7-7-|
A|-0-0-0-0-0-0-0-0-8-8-8-8-5-5-7-7-|
D|-0-0-0-0-0-0-0-0-8-8-8-8-5-5-7-7-|

E|-------------------------------------------|
B|-------------------------------------------|
G|-------------------------------------------|
D|-0-0-0-0-0-0-0-0—8-8-8-8-10-10-7-7---|
A|-0-0-0-0-0-0-0-0-8-8-8-8-10-10-7-7---------|
D|-0-0-0-0-0-0-0-0-8-8-8-8-10-10-7-7---------|

End:
E|----------------------------|  |--------------------------|
B|----------------------------|  |--------------------------|
G|----------------------------|  |--------------------------|
D|---0-----0----0-----0-----0-|  |---0-----0--5-5--3-3--0-0-|
A|-5-5-5-5-5--5-5-5-5-5-5-5-5-|X1|-5-5-5-5-5--5-5--3-3--0-0-|
D|-0-0-0-0-0--0-0-0-0-0-0-0-0-|  |-0-0-0-0-0--5-5--3-3--0-0-|

................................................5. FEUER FREI!

Drop D

This 2 riffs are all the song:

E|--------------------------|
B|--------------------------|
G|--------------------------|
D|-5h6-5h6-5h6-5h6-8-8-8--9-|
A|-5h6-5h6-5h6-5h6-8-8-8--9-|
D|-5h6-5h6-5h6-5h6-8-8-8--9-|

E|------------------------------------------------------------------------|
B|------------------------------------------------------------------------|
G|----------------------------------------------------7-7-7--6-6-6--4-4-4-|
D|-5h6-5h6-5h6-5h6-8-8-8--9--5h6-5h6-5h6-5h6-8-8-8-9--7-7-7--6-6-6--4-4-4-|
A|-5h6-5h6-5h6-5h6-8-8-8--9--5h6-5h6-5h6-5h6-8-8-8-9--5-5-5--4-4-4--2-2-2-|
D|-5h6-5h6-5h6-5h6-8-8-8--9--5h6-5h6-5h6-5h6-8-8-8-9----------------------|

..................................................6. MUTTER...

Guitar 1 Drop E
Guitar 2 Drop D


Intro/Verse :Guitar 1
E|-----------------7-------------------------7-----------------7-----|
B|-------------8-------8-------------------7---7-------------7---7---|
G|---------9---------------9-------------8-------8---------8-------8-|
D|-----9-----------------------9-------9-----------------7-----------|
A|-7---------------------------------9-----------------7-------------|x6
E|---------------------------------7-----------------9---------------|

Chorus:X2 Guitar 1
E|---------------------------------------------|
B|---------------------------------------------|
G|-9b~--11-12-14h16--14-16-14-11---11b-12b-11b-|
D|---------------------------------------------|
A|---------------------------------------------|
E|---------------------------------------------|

Guitar 2:
E|---------------|
B|---------------|
G|---------------|
D|-2-2--5/7--0-0-|
A|-2-2--5/7--0-0-|
D|-2-2--5/7--0-0-|

Verse 2:
E|-----------------7-------------------------7-----------------7-----|
B|-------------8-------8-------------------7---7-------------7---7---|
G|---------9---------------9-------------8-------8---------8-------8-|
D|-----9-----------------------9-------9-----------------7-----------|
A|-7---------------------------------9-----------------7-------------|x4
E|---------------------------------7-----------------9---------------|

Chorus:X4 Guitar 1
E|---------------------------------------------|
B|---------------------------------------------|
G|-9b~--11-12-14h16--14-16-14-11---11b-12b-11b-|
D|---------------------------------------------|
A|---------------------------------------------|
E|---------------------------------------------|

Guitar 2:
E|---------------|
B|---------------|
G|---------------|
D|-2-2--5/7--0-0-|
A|-2-2--5/7--0-0-|
D|-2-2--5/7--0-0-|

Bridge (both guitars):
E|------------------------------------|
B|------------------------------------|
G|-9-9-9-9--7-7-7-7--5-5-5-5--7-7-7-7-|
D|-9-9-9-9--7-7-7-7--5-5-5-5--7-7-7-7-|
A|-7-7-7-7--5-5-5-5--3-3-3-3--5-5-5-5-|
D|------------------------------------|

Chorus Guitar 1:x4
E|---------------------------------------------|
B|---------------------------------------------|
G|-11b~--13-14-16h18--16-18-16-13--14b-14b-13b-|
D|---------------------------------------------|
A|---------------------------------------------|
E|---------------------------------------------|

Chorus (Guitar 2)
E|---------------|
B|---------------|
G|---------------|
D|-4-4--7/9--2-2-|
A|-4-4--7/9--2-2-|
D|-4-4--7/9--2-2-|

Bridge (both guitars):
E|------------------------------------|
B|------------------------------------|
G|-9-9-9-9--7-7-7-7--5-5-5-5--7-7-7-7-|
D|-9-9-9-9--7-7-7-7--5-5-5-5--7-7-7-7-|
A|-7-7-7-7--5-5-5-5--3-3-3-3--5-5-5-5-|
D|------------------------------------|

Final Chorus Guitar 1:x4
E|---------------------------------------------|
B|---------------------------------------------|
G|-11b~--13-14-16h18--16-18-16-13--14b-14b-13b-|
D|---------------------------------------------|
A|---------------------------------------------|
E|---------------------------------------------|

Chorus (Guitar 2)
E|---------------|
B|---------------|
G|---------------|
D|-4-4--7/9--2-2-|
A|-4-4--7/9--2-2-|
D|-4-4--7/9--2-2-|

..........................................7. SPIELHUR
Drop D

Intro:
E|---|
B|---|
G|---|
D|-3-|
A|-3-|
D|-3-|

Intro/Verse:x3
E|----------------------------------------------------|
B|----------------------------------------------------|
G|----------------------------------------------------|
D|-3-0-0-3-0-0-3-0-0-3-0-0-3-0-0-3-0-0-3-0-0-3-6-6-6--|
A|-3-0-0-3-0-0-3-0-0-3-0-0-3-0-0-3-0-0-3-0-0-3-6-6-6--|
D|-3-0-0-3-0-0-3-0-0-3-0-0-3-0-0-3-0-0-3-0-0-3-6-6-6--|

Prechorus:
E|-------|
B|-------|
G|-------|
D|-6-6-6-|
A|-6-6-6-|
D|-6-6-6-|

Chorus:x2
E|-----------------------------------------------------------------|
B|-----------------------------------------------------------------|
G|-7-7-7-7-7-7-7-7-7-7-7-7-7-7-7-7-5-5-5-5-5-5-5-5-5-5-5-5-5-5-5-5-|
D|-7-7-7-7-7-7-7-7-7-7-7-7-7-7-7-7-5-5-5-5-5-5-5-5-5-5-5-5-5-5-5-5-|
A|-5-5-5-5-5-5-5-5-5-5-5-5-5-5-5-5-3-3-3-3-3-3-3-3-3-3-3-3-3-3-3-3-|
D|-----------------------------------------------------------------|

E|--------------------------------------------------------------------------|
B|--------------------------------------------------------------------------|
G|-7-7-7-7-7-7-7-7-7-7-7-7-7-7-7-7-10-10-10-10-10-10-10-10------------------|
D|-7-7-7-7-7-7-7-7-7-7-7-7-7-7-7-7-10-10-10-10-10-10-10-10--7-7-7-7-7-7-7-7-|
A|-5-5-5-5-5-5-5-5-5-5-5-5-5-5-5-5--8--8--8--8--8--8--8--8--7-7-7-7-7-7-7-7-|
D|----------------------------------------------------------7-7-7-7-7-7-7-7-|

Then:
E|----------------------------------------------------|
B|----------------------------------------------------|
G|----------------------------------------------------|
D|-3-0-0-3-0-0-3-0-0-3-0-0-3-0-0-3-0-0-3-0-0-3-6-6-6--|
A|-3-0-0-3-0-0-3-0-0-3-0-0-3-0-0-3-0-0-3-0-0-3-6-6-6--|
D|-3-0-0-3-0-0-3-0-0-3-0-0-3-0-0-3-0-0-3-0-0-3-6-6-6--|

Prechorus:
E|-------|
B|-------|
G|-------|
D|-6-6-6-|
A|-6-6-6-|
D|-6-6-6-|

Chorus:x4
E|-----------------------------------------------------------------|
B|-----------------------------------------------------------------|
G|-7-7-7-7-7-7-7-7-7-7-7-7-7-7-7-7-5-5-5-5-5-5-5-5-5-5-5-5-5-5-5-5-|
D|-7-7-7-7-7-7-7-7-7-7-7-7-7-7-7-7-5-5-5-5-5-5-5-5-5-5-5-5-5-5-5-5-|
A|-5-5-5-5-5-5-5-5-5-5-5-5-5-5-5-5-3-3-3-3-3-3-3-3-3-3-3-3-3-3-3-3-|
D|-----------------------------------------------------------------|

E|--------------------------------------------------------------------------|
B|--------------------------------------------------------------------------|
G|-7-7-7-7-7-7-7-7-7-7-7-7-7-7-7-7-10-10-10-10-10-10-10-10------------------|
D|-7-7-7-7-7-7-7-7-7-7-7-7-7-7-7-7-10-10-10-10-10-10-10-10--7-7-7-7-7-7-7-7-|
A|-5-5-5-5-5-5-5-5-5-5-5-5-5-5-5-5--8--8--8--8--8--8--8--8--7-7-7-7-7-7-7-7-|
D|----------------------------------------------------------7-7-7-7-7-7-7-7-|

Solo:
E|-----------------------------------------------------------------------------|
B|-----------------------------------------------------------------------------|
G|-----------------------------------------------------------------------------|
D|-----------------------------------------------------------------------------|
A|-5-5-5-5-5-5-5-5-8-8-8-8-----------------------------12-12-12-12-12-12-12-12-|
D|-------------------------6-6-6-6-6-6-6-6-10-10-10-10-------------------------|

E|-------------------------------------------------------------|
B|-------------------------------------------------------------|
G|-------------------------------------------------------------|
D|-------------------------------------------------------------|
A|-12-8-8-8-8-8-8-8-8-10-10-10-10-10-10-10-10-7-7-7-7-7-7-7-7--|
D|-------------------------------------------------------------|

Final Chorus:x4
E|-----------------------------------------------------------------|
B|-----------------------------------------------------------------|
G|-7-7-7-7-7-7-7-7-7-7-7-7-7-7-7-7-5-5-5-5-5-5-5-5-5-5-5-5-5-5-5-5-|
D|-7-7-7-7-7-7-7-7-7-7-7-7-7-7-7-7-5-5-5-5-5-5-5-5-5-5-5-5-5-5-5-5-|
A|-5-5-5-5-5-5-5-5-5-5-5-5-5-5-5-5-3-3-3-3-3-3-3-3-3-3-3-3-3-3-3-3-|
D|-----------------------------------------------------------------|

E|--------------------------------------------------------------------------|
B|--------------------------------------------------------------------------|
G|-7-7-7-7-7-7-7-7-7-7-7-7-7-7-7-7-10-10-10-10-10-10-10-10------------------|
D|-7-7-7-7-7-7-7-7-7-7-7-7-7-7-7-7-10-10-10-10-10-10-10-10--7-7-7-7-7-7-7-7-|
A|-5-5-5-5-5-5-5-5-5-5-5-5-5-5-5-5--8--8--8--8--8--8--8--8--7-7-7-7-7-7-7-7-|
D|----------------------------------------------------------7-7-7-7-7-7-7-7-|

.............................................8. ZWITTER
Drop D

Intro (clean):
E|-------------------------------------|
B|-------------------------------------|
G|-------------------------------------|
D|-0-0-0-0--0-0-5-3--0-0-0-0--0-0--1-0-|
A|-0-0-0-0--0-0-5-3--0-0-0-0--0-0--1-0-|x4
D|-0-0-0-0--0-0-5-3--0-0-0-0--0-0--1-0-|

Intro (distortion):
  .............      ............
E|-------------------------------------|
B|-------------------------------------|
G|-------------------------------------|
D|-0-0-0-0--0-0-5-3--0-0-0-0--0-0--1-0-|
A|-0-0-0-0--0-0-5-3--0-0-0-0--0-0--1-0-|x8
D|-0-0-0-0--0-0-5-3--0-0-0-0--0-0--1-0-|

Chorus:
E|----------------------------------------------------------------------|
B|----------------------------------------------------------------------|
G|-8-8-8-8-8-8-8-8--5-5-5-5-5-5-5-5--3-3-3-3-3-3-3-3--3-3-3-3-----------|
D|-8-8-8-8-8-8-8-8--5-5-5-5-5-5-5-5--3-3-3-3-3-3-3-3--3-3-3-3------1-3--|
A|-6-6-6-6-6-6-6-6--3-3-3-3-3-3-3-3--1-1-1-1-1-1-1-1--1-1-1-1--1-3------|
D|----------------------------------------------------------------------|

E|---------------------------------------------------|
B|---------------------------------------------------|
G|-8-8-8-8-8-8-8-8--5-5-5-5-5-5-5-5------------------|
D|-8-8-8-8-8-8-8-8--5-5-5-5-5-5-5-5--5-5-5-5-5-5-5-5-|
A|-6-6-6-6-6-6-6-6--3-3-3-3-3-3-3-3--5-5-5-5-5-5-5-5-|
D|-----------------------------------5-5-5-5-5-5-5-5-|

End:
E|-------------------------------------|
B|-------------------------------------|
G|-------------------------------------|
D|-0-0-0-0--0-0-5-3--0-0-0-0--0-0--1-0-|
A|-0-0-0-0--0-0-5-3--0-0-0-0--0-0--1-0-|to end of the song
D|-0-0-0-0--0-0-5-3--0-0-0-0--0-0--1-0-|

.............................................9. REIN RAUS
Drop D

Intro (interrumped):
E|----------------------------------|
B|----------------------------------|
G|----------------------------------|
D|-6--6--6--6--3p2---2--3-5-3p2---2-|
A|-6--6--6--6--3p2---2--3-5-3p2---2-|
D|-6--6--6--6--3p2-2-2--3-5-3p2-2-2-|

Verse:
E|------------------------------------|
B|------------------------------------|
G|------------------------------------|
D|-1p0---0--1-----0--1-----0--1-3-1-0-|
A|-1p0---0--1-----0--1-----0--1-3-1-0-|
D|-1p0-0-0--1p0-0-0--1p0-0-0--1-3-1-0-|

Chorus:
E|------------------------|
B|------------------------|
G|------------------------|
D|-6--6--6--6--3--2--3--5-|
A|-6--6--6--6--3--2--3--5-|
D|-6--6--6--6--3--2--3--5-|

Chorus 2:
E|-----------------------|
B|-----------------------|
G|-----------------------|
D|-7--9--9--9--10--12--9-|
A|-7--9--9--9--10--12--9-|
D|-7--9--9--9--10--12--9-|

Presolo:
E|-------------------|
B|-9-9-9-9-9-9-9-9-9-|
G|-------------------|
D|-------------------|
A|-------------------|
D|-------------------|

GUITAR 2:
E|-----------|
B|-----------|
G|-----------|
D|-2-2-2-2-2-|
A|-2-2-2-2-2-|
D|-2-2-2-2-2-|

Solo:
E|-----------------------------------------------------------|
B|-10-9-9-10-9-9-10-9-10-9-9----10-9-9-10-9-9-10-9-10-9-9-13-|
G|---------------------------9-------------------------------|
D|-----------------------------------------------------------|
A|-----------------------------------------------------------|
D|-----------------------------------------------------------|

Guitar 2:
E|----------------------------------|
B|----------------------------------|
G|----------------------------------|
D|-6--6--6--6--3p2---2--3-5-3p2---2-|
A|-6--6--6--6--3p2---2--3-5-3p2---2-|
D|-6--6--6--6--3p2-2-2--3-5-3p2-2-2-|

End:
E|----------------------------------|
B|----------------------------------|
G|----------------------------------|
D|-6--6--6--6--3p2---2--3-5-3p2---2-|
A|-6--6--6--6--3p2---2--3-5-3p2---2-|
D|-6--6--6--6--3p2-2-2--3-5-3p2-2-2-|

...............................................10. ADIOS
Drop D

This 2 riffs are all the song:
E|----------------------------------------------------------|
B|----------------------------------------------------------|
G|----------------------------------------------------------|
D|-8-8-8-8-8-8-8-8--10-10-10-10/12-12-12-7--7-7-7-7-7/5-5/4-|
A|-8-8-8-8-8-8-8-8---8--8--8--8/10-10-10-5--5-5-5-5-5/3-3/2-|
D|-8-8-8-8-8-8-8-8------------------------------------------|

E|-------------------------------------------------------------|
B|-------------------------------------------------------------|
G|-------------------------------------------------------------|
D|-3-5-7-x-x-x-x-x-x-----x-x-x-x-x-x-x-----x-x-x-x-x-x-x-x-x-x-|
A|-3-3-5-x-x-x-x-x-x-3h5-x-x-x-x-x-x-x-3h5-x-x-x-x-x-x-x-x-x-x-|
D|-3-----0-0-0-0-0-0-----0-0-0-0-0-0-0-----0-0-0-0-0-0-0-0-0-0-|


...............................................11. NEBEL
Drop standard

Chorus (tremolo):
E|-----------------|
B|-----------------|
G|-2--7--9--4--5-2-|
D|-2--7--9--4--5-2-|
A|-0--5--7--2--3-0-|
E|-----------------|

Solo:
E|----------------------------------------------------------------------|
B|-10-10-10-10-10-10-10-8-5-5-5-5-5-3-3-3-3-5-5-5-5-5-0-0-0-0-1-1-1-/10~|
G|----------------------------------------------------------------------|
D|----------------------------------------------------------------------|
A|----------------------------------------------------------------------|
E|----------------------------------------------------------------------|


RAMMS+EIN RULES !!!! |m/
EASY!
PEACE!
comments
print report bad tab
I want to post or [tab]
guest
You may want to rate the tab now too:
select rating
Please do not post tabs as comments. Select "correction" instead!