Oops, an error
Loading. Please wait.

Rosenrot Tab

ver1
ver1

Album

Whole song

More versions @911Tabs.com
33,976 views 45 this week
15 commentsread comments
1 2 3 4 5
accurate
x 5
Autoscroll
+/-
esc
set tempo
stop
Contributor
WARNING: You are trying to view
                                    content from Ultimate-Guitar.com
                                    in an unauthorized application,
                                    which is prohibited.

                                    Please use an official Ultimate
                                    Guitar Tabs application for iPhone,
                                    iPad or Android to access legitimate
                                    chords, guitar, bass, and drum tabs
                                    from Ultimate-Guitar.com database.

                                    Type "ultimate guitar tabs" in Apple
                                    App Store's or Android Market's
                                    search to find the application.
RAMMSTEIN|ROSENROT|FULL ALBUM TAB    

wolkan_cirak@hotmail.com  "ausL4nder"


Rammstein|Rosenrot|Benzin        
                                             
d|------------------------------------------[Giriş/Intro]-|
A|--------------------------------------------------------|
F|----------------------------|---------------------------|
C|-7~---6~----7~---6~--6/10---|--7~---6~----7~---6~---0---|
G|----------------------------|---------------------------|
C|----------------------------|---------------------------|

             
d|---------[KT/Riff]-|
A|-------------------|
F|-------------------|
C|-0000000000000000--|
G|-5555555555555555--|
C|-0000000000000000--|
   
                                                
d|-------------------------------------------[Dize/Verse]-|
A|--------------------------------------------------------|
F|-----------------------------|--------------------------|
C|-7~---6~----7~---6~---/10----|---7~---6~----7~---0------|
G|-----------------------------|--------------------------|
C|-----------------------------|--------------------------|
 |Ich brauche Zeit, kein Heroin|Brauch keine Hilfe,kein...|
 |kein Alkohol,kein Nikotin....|doch Dynamit und Terpentin| 

                                                     
d|------------------------------------[Koro/Chorus]-|
A|--------------------------------------------------|
F|--------------------------------------------------|
C|-0----1---|-0---x-x-x-1--2---|-0----1--|-0---1--2-|
G|-0----1---|-0---x-x-x-1--2---|-0----1--|-0---1--2-|
C|-0----1---|-0---x-x-x-1--2---|-0----1--|-0---1--2-|
 |Benzin....|Benzin!...........|Benzin...|Benzin....|..ja!|

**********************************************************

Rammstein|Rosenrot|Mann gegen mann 
               
F|-----------------[Bass]-|
C|------------------------|
G|------------------------|
C|---0---8---0--7--0-5----|
 |Das Schicksal hat mich angelacht... 
 |und mir ein Geschenk gemacht... 
 |Warf mich auf einen warmen Stern... 
 |Der Haut so nah dem Auge fern...
 |Ich nehm mein Schicksal in die Hand... 
 |Mein Verlangen ist bemannt... 

                   
d|-------------[Ana/Main]-|
A|------------------------|
F|------------------------|
C|---0---8---0--7--0-5----|
G|---0---8---0--7--0-5----|
C|---0---8---0--7--0-5----|
 |Mann gegen Mann.........
 |Meine Haut gehört den Herren... 
 |Mann gegen Mann.........
 |Gleich und Gleich gesellt sich gern... 
 |Mann gegen Mann.........
 |Ich bin der Diener zweier Herren... 
 |Mann gegen Mann.........
 |Gleich und Gleich gesellt sich gern... 

                                                 
d|----------------------------------------[Köprü/Bridge]-|
A|-------------------------------------------------------|
F|-------------------------------------------------------|
C|-------------------------------------------------------|
G|--5/77777-5/77777-5/7-5/7--|--5/77777-5/77777-5/7-5/7--|
C|--5/77777-5/77777-5/7-5/7--|--5/77777-5/77777-5/7-5/7--|

d|------------------------------------|
A|------------------------------------|
F|------------------------------------|
C|------------------------------------|
G|-10/88888-10/88888-10/8-10/8--------|
C|-10/88888-10/88888-10/8-10/8--------|
 |....................................|
 |....................................|

d|-------------------------------|
A|-------------------------------|
F|-------------------------------|
C|-------------------------------|
G|-10/88888-10/88888-10/8-10/8---|
C|-10/88888-10/88888-10/8-10/8---|
 |...............................|
 |Kalte Zungen die da schlagen...|
 |                               |
 |                               |                               
d|----6-5-1~-0-1----6-5-3~-1~-3~-|
A|-3~------------3~--------------|
F|-------------[Klavye/Keyboard]-|


d|-----------------[Main]-|
A|------------------------|
F|------------------------|
C|---0---8---0--7--0-5----|
G|---0---8---0--7--0-5----|
C|---0---8---0--7--0-5----|
 |Schwulah................| 
 |Aaaaaaaah...............|


d|--------------------------[Guitar 1]-|(***)
A|-------------------------------------|
F|---7-9-7---7-9-7-|---7-10-7---7-10-7-|
C|-7-------7-------|-7--------7--------|
G|-----------------|-------------------|
C|-----------------|-------------------|
 |.....................................|
 |.....................................|
 |Mich interessiert kein Gleichgewicht.| 
 |Mir scheint die Sonne ins Gesicht....| 
 |Doch frert mein Herz an manchen Tagen| 
 |Kalte Zungen die da schlagen.........|

d|------------------------------------------[Guitar 2]-|(***)
A|-----------------------------------------------------|
F|-----------------------------------------------------|
C|-----------------------------------------------------|
G|00000000|00000000|00000000|00000000|00000000|00000000|
C|00000000|00000000|00000000|00000000|00000000|00000000| 

d|------------------[End]-|
A|------------------------|
F|------------------------|
C|---0---8---0--7--0-5----|
G|---0---8---0--7--0-5----|
C|---0---8---0--7--0-5----|
 |Schwulah................| 
 |Mann gegen mann.........|


(***) Two guitar 

******************************************

Rammstein|Rosenrot|Rosenrot             

F|---------------------------[Bass]-|
C|----------------------------------|
G|-5-5-5-5-5-5-5-5-1-1-1-1-1-1-1-1--|
C|----------------------------------|
 |Sah ein Mädchen ein Röslein stehen|
 |Sprach sie ihren Liebsten an......|
 |Sie will es und so ist es fein....|
 |Sie will es und so ist es Brauch..|

F|-----------------------------------|
C|-----------------------------------|
G|-5-5-5-5-5-5-5-5-1-1-1-1-1/8-8-8---|
C|-----------------------------------|   
 |Blühte dort in lichten Höhen.......|
 |ob er es ihr steigen kann..........|
 |So war es und so wird es immer sein|
 |Was sie will bekommt sie auch......|
                 
d|------------------------------------------------[Koro/Chorus]-|
A|--------------------------------------------------------------|
F|-7-----------|-3-------------|-7-------------|-------10-------|
C|-7-----------|-3-------------|-7-------------|-8-----10-------|
G|-5-----------|-1-------------|-5-------------|-8-----8--------|
C|-------------|---------------|---------------|-8--------------|
 |Tiefe Brunnen|muss man graben|wenn man klares|Wasser will.....| 
 |Rosenrot oh..|Rosenrot.......|Tiefe Wasser...|sind nicht still| 

d|----------------------------------[Köprü/Bridge]-|
A|-------------------------------------------------|
F|-------------------------------------------------|
C|-12-10-7-12-10-7-12-10-|-13-12-10-13-12-10-13-12-|
G|-12-10-7-12-10-7-12-10-|-13-12-10-13-12-10-13-12-|
C|-12-10-7-12-10-7-12-10-|-13-12-10-13-12-10-13-12-|

d|--------------------------------------------|
A|--------------------------------------------|
F|--------------------------------------------|
C|-12-10-7-12-10-7-12-10-|-10-8-7-10-8-7-10-8-|
G|-12-10-7-12-10-7-12-10-|-10-8-7-10-8-7-10-8-|
C|-12-10-7-12-10-7-12-10-|-10-8-7-10-8-7-10-8-|

d|----------------5-----------------------|
A|--5~----6~----8-----8~----6-----5-------|
F|----------------------------------------|
C|----------------------[Klavye/Keyboard]-|
G|----------------------------------------| 
 |Tiefe Brunnen muss man graben wenn man... 
 |klares Wasser will.......................

d|-----------5~--------6~--------8~----|
A|-3~---3--6------3--6------5--8-------|
F|-------------------------------------|
C|-------------------------------------|
G|-------------------------------------|
C|-------------------------------------|
 |Tiefe Wasser sind nicht still.........

*******************************************


Rammstein|Rosenrot|Spring
                                                                           
d|-----------------------[Giriş/Intro]-|
A|-------------------------------------|
F|-------------------------------------|
C|-1p0------1p0---0--1p0------1p0---0--|
G|-1p0------1p0---0--1p0------1p0---0--|
C|-1p0-0-0--1p0-0-0--1p0-0-0--1p0-0-0--|

d|-------------------------------------|
A|-------------------------------------|
F|-------------------------------------|
C|-1p0------1p0---0--1p0------1p0---0--|
G|-1p0------1p0---0--1p0------1p0---0--|
C|-1p0-0-0--1p0-0-0--1p0-0-0--1p0-0-0--|

d|----------------------------------------------|
A|----------------------------------------------|
F|-5-------|------------------------------------|
C|-5-------|-1p0------1p0---0--1p0------1p0---0-|
G|-3-------|-1p0------1p0---0--1p0------1p0---0-|
C|---------|-1p0-0-0--1p0-0-0--1p0-0-0--1p0-0-0-|


d|-----------------------------------[Dize/Verse]-| 
A|--------------------|---------------------------|
F|---------5-----7~---|---------5------7/9----7~--|
C|--5--7--------------|--5--7---------------------|
G|--------------------|---------------------------|
C|--------------------|---------------------------|  
 |Der Mann will von...|Bilden einen dichten Reigen|  
 |Die Menschen fangen.|Und wollen ihn nicht nach..|  
 |So steigt er noch...|Sie wollen seine Innereien.|Und schreien|

                                                                                    
d|----------------------------------------------------------[Köprü/Bridge]-|
A|-------------------------------------------------------------------------|
F|-------------------------------------------------------------------------|
C|-1p0------1p0---0--1p0------1p0---0-|-1p0------1p0---0--1p0------1p0---0-|
G|-1p0------1p0---0--1p0------1p0---0-|-1p0------1p0---0--1p0------1p0---0-|
C|-1p0-0-0--1p0-0-0--1p0-0-0--1p0-0-0-|-1p0-0-0--1p0-0-0--1p0-0-0--1p0-0-0-|
 |Spring..............................|Spring..............................|
 |Spring.............Erlöse mich......|Spring..........Enttäusch mich nicht|

d|------------------------------------|
A|------------------------------------|
F|------------------------------------|
C|-1p0------1p0---0--1p0------1p0---0-|
G|-1p0------1p0---0--1p0------1p0---0-|
C|-1p0-0-0--1p0-0-0--1p0-0-0--1p0-0-0-|
 |Spring..............................|
 |Spring..........Enttäusch mich nicht|

d|--------------------------------|
A|--------------------------------|
F|-5------------------------------|
C|-5------------------------------|
G|-3------------------------------|
C|--------------------------------|
 |................................|
 |Spring für mich,Spring ins Licht|

d|------------------------------------|
A|------------------------------------|
F|------------------------------------|
C|-1p0------1p0---0--1p0------1p0---0-|
G|-1p0------1p0---0--1p0------1p0---0-|
C|-1p0-0-0--1p0-0-0--1p0-0-0--1p0-0-0-|
 |Spring..............................|   
 |Spring..............................|




d|---------------------------------------------[Koro/Chorus]-|
A|-----------------------------------------------------------|
F|-----------------------------------------------------------|
C|-12------------------|-10-------|-5-----------|-7----------|
G|-12------------------|-10-------|-5-----------|-7----------|
C|-12------------------|-10-------|-5-----------|-7----------| 
 |Heimlich schiebt sich|eine Wolke|vor die Sonne|es wird kalt|
 
d|----------------------------------------|
A|----------------------------------------|
F|----------------------------------------|
C|-10----------------|-10-------------0---|
G|-10----------------|-10-------------0---|
C|-10----------------|-10-------------0---|
 |Doch tausend Sonnen|brennen nur für dich|                                      

                    
C|-0--7--5--3~--|-0--7--5--3-2~--|-0--7--5--3~-|
G|---------------------------------------------|
C|---------------------------[Klavye/Keyboard]-|

       
d|--------------------------|-------------------[Solo]-|
A|--------------------------|--------------------------|
F|-----5--7~------5-7/9-7~--|-----5--7~------5-7/9-7~--|
C|-5-7--------5-7-----------|-5-7--------5-7-------5~--|
G|--------------------------|--------------------------|
C|--------------------------|--------------------------|

**********************************************************

Rammstein|Rosenrot|Wo bist du 
                                                              
d|-------------------------------------------------------------------|
A|-------------------------------------------------------------------|
F|---------9~---|---------10~--|-12~----10~--9~--|-14~---12~---10~---|
C|-7---10-------|-7---10-------|-----------------|-------------------|
G|-------------------------------------------------[Klavye/Keyboard]-|

               
d|--------------------------------------[Giriş/Intro]-|
A|----------------------------------------------------|
F|----------------------------------------------------|
C|-7-----------|-3--------------|-10-------|-0--------|
G|-7-----------|-3--------------|-10-------|-0--------|
C|-7-----------|-3--------------|-10-------|-0--------|
 |Such ich dich|hinter dem Licht|Wo bist du|Wo bist du|  

d|---------------------------------------------------|
A|---------------------------------------------------|
F|---------------------------------------------------|
C|-7-------|-3-----------------|-10-------|-12-------|
G|-7-------|-3-----------------|-10-------|-12-------|
C|-7-------|-3-----------------|-10-------|-12-------|
 |So allein|will ich nicht sein|Wo bist du|Wo bist du| 
 

d|--------------------------------------------------[Koro/Chorus]-|
A|----------------------------------------------------------------|
F|----------------------------------------------------------------|
C|-7-----------------------|---3------------|---10-----|---0------|
G|-7-----------------------|---3------------|---10-----|---0------|
C|-7-----------------------|---3------------|---10-----|---0------|
 |Such ich dich............|hinter dem Licht|Wo bist du|Wo bist du|  
 |Ich such dich unter jedem|Stein...........|Wo bist du|Wo bist du| 

d|-----------------------------------------------|
A|-----------------------------------------------|
F|-----------------------------------------------|
C|-7-------------------------|-3-----------------|
G|-7-------------------------|-3-----------------|
C|-7-------------------------|-3-----------------|
 |So allein..................|will ich nicht sein|
 |Ich schlag mit einem Messer|ein................|

d|---------------------|
A|---------------------|
F|---------------------|
C|-10-------|-12-------|
G|-10-------|-12-------|
C|-10-------|-12-------|
 |Wo bist du|Wo bist du|
 |Wo bist du|Wo bist du|

d|------------------------------------------------[Klavye/Keyboard]-|
A|--10--------------------------------|--11-------------------------|
F|--9---------------------------------|--10-------------------------|
C|--7---------------------------------|--8--------------------------|
G|--7---------------------------------|--8--------------------------|
C|--7---------------------------------|--8--------------------------|
 |Die schönen Mädchen sind nicht schön|Die warmen Hände sind so kalt| 

d|---------------------------------------------------------------|
A|--12---------------------|--13---------------------------------|
F|--11---------------------|--12---------------------------------|
C|--9----------------------|--10---------------------------------|
G|--9----------------------|--10---------------------------------|
C|--9----------------------|--10---------------------------------|
 |Alle Uhren bleiben stehen|Lachen ist nicht mehr gesund und bald|


d|-8-6-4-4~-|--8-6-4~-3~-|--8-6-4-4~-|--8~-10~-|
A|---------------------------------------------|
F|---------------------------------------------|
C|---------------------------[Klavye/Keyboard]-|

***********************************************************

Rammstein|Rosenrot|Stirb nicht vor mich  
                                                
e|--------------------------------------[Arpej/Arpeggio]-|
H|-------10----------10----------10----------10----------|
G|----11----11----11----11----11----11----11----11-------|
D|-12----------12----------11----------11----------------|
A|-------------------------------------------------------|
E|-------------------------------------------------------|

e|-------------------------------------------------------|
H|-------10----------------------------------------------|
G|----11----11--------------------------------------4/6--|
D|-12----------12--9--11--12--11---9--11--12--11--7------|
A|-------------------------------------------------------|
E|-------------------------------------------------------|

Giriş...
Bm >>> F#m >>> Gm >>> Em      

Gm                     Bm
Die Nacht öffnet ihren Schoß 
Gm                   Bm         
Das Kind heißt Einsamkeit 
Gm                     Bm
Es ist kalt und regungslos 
Gm                     Bm      
Ich weine leise in die Zeit 

Gm                     Bm            
Ich weiß nicht wie du heißt 
Gm                     Bm       
Doch ich weiß dass es dich gibt 
F#m                 Bm              
Ich weiß dass irgendwann 
Gm             F#m                
irgendwer mich liebt 

[Riff]* (Arka planda 2.Gitar Bm,F#m,Gm,Em)

Gm                   Bm
He comes to me every night 
Gm                   Bm
No words are left to say 
Gm                       Bm
With his hands around my neck 
Gm                       Bm
I close my eyes and pass away 

Gm               Bm
I don't know who he is 
Gm                   Bm
In my dreams he does exist 
F#m         Bm 
His passion is a kiss 
Gm            F#       Gm
And I can not resist 

Bm  F#m 
Ich warte hier 
Gm               E
Don't die before I do 
Bm  F#m
Ich warte hier 
Gm              E  
Stirb nicht vor mir 

[Riff](*)
I don't know who you are 
I know that you exist 

[Riff](*)
Stirb nicht 
Sometimes love seems so far 

[Riff](*)
Ich warte hier 
Your love I can't dismiss 

F#m
Ich warte hier 

Alle Häuser sind verschneit 
Und in den Fenstern Kerzenlicht 
Dort liegen sie zu zweit 
Und ich 

                       Gm
Ich warte nur auf dich 
    F#m 
Ich warte hier 
Gm               Em
Don't die before I do 
F#m
Ich warte hier 
Gm              Em  
Stirb nicht vor mir

Gm           F#
I don't know who you are 
Gm              F#
I know that you exist 

Stirb nicht 
Gm                      F#m    Gm
Sometimes love seems so far 
    F#m
Ich warte hier 
Em                 F#m
Your love I can't dismiss 

Stirb nicht vor mir  


Chords
  Bm     F#m    Gm     Em
e|------|------|------|------|
H|-7----|-2----|-3----|-0----|
G|-7----|-2----|-3----|-0----|
D|-9----|-4----|-5----|-2----|
A|-9----|-4----|-5----|-2----|
E|-7----|-2----|-3----|-0----|

(*) Behind of 2nd Guitar Bm,F#m,Gm,Em playing chords.
 
********************************************************

Rammstein|Rosenrot|Zerstören
                      
d|--------------------[Giriş/Intro]-|
A|----------------------------------|
F|----------------------------------|
C|----------------------------------|
G|-4-0-0-1-1-0-0-1-0-1-1-1-0-1-1-1--|
C|-4-0-0-1-1-0-0-1-0-1-1-1-0-1-1-1--|
 |..Jah!....Jah!....Jah!....Jah!....|
                   
d|----------------------[Dize/Verse]-|
A|-----------------------------------|
F|-----------------------------------|
C|-----------------------------------|
G|-4-0-0-1x-0-0-1-0x-0-1-0-0-1-0-1-0-|
C|-4-0-0-1x-0-0-1-0x-0-1-0-0-1-0-1-0-|
 |Meine Sachen will ich pflegen......|
 |Den Rest in Schutt und Asche legen.|
 |Zerreißen zerschmeißen.............|
 |Zerdrücken zerpflücken.............|
 |                                   |                          
d|-----------------[Klavye/Keyboard]-|
A|-----------------------------------|
F|--------3-------1------------------|
C|-1---2------4-------2---4---2--1---|
G|-----------------------------------|
C|-----------------------------------|

                                                                                  
d|--------------------------------------------------[Koro/Chorus]-|
A|----------------------------------------------------------------|
F|-9-------------------------------|-9----------------------------|
C|-9-----------------------------9-|-9----------------------------|
G|-7-----------------------------9-|-7----------------------------|
C|-------------------------------9-|------------------------------|
 |Ich würde gern etwas zerstören...|Doch es darf nicht mir gehören|  

d|-----------------------------|
A|-----------------------------|
F|-----------------------------|
C|-9---------------------------|
G|-9---------------------------|
C|-9---------------------------|
 |Ich will ein guter Junge sein| 

d|-----------------------------------------------------|
A|-----------------------------------------------------|
F|-6---------------------------------------------------|
C|-6------------------------------6-|-6----------------|
G|-4------------------------------6-|-6----------------|
C|--------------------------------6-|-6----------------|
 |Doch das Verlangen holt mich ein..|.......ich muß zer|stören

d|----------------------------------|
A|----------------------------------|
F|----------------------------------|
C|----------------------------------|
G|-4-0-0-1-1-0-0-1-0-1-1-1-0-1-1-1--|
C|-4-0-0-1-1-0-0-1-0-1-1-1-0-1-1-1--|
 |ich muß zer stören................|
 |..Jah!....Jah!....Jah!....Jah!....|
 |ich muß zer stören................|
 |Doch es darf nicht mir gehören....|



d|-----6---4---------------6---4---4------------6---4--------|
A|-4-5---7---5--7--5---4-5---7---5----5-4---4-5---7---5-7--5-|
F|-----------------------------------------------------------|
C|-----------------------------------------[Klavye/Keyboard]-|
G|-----------------------------------------------------------|
C|-------------------------------[Şarkının sonu/End of Song]-|

d|---7---6---7---9----------|
A|-5---4--------------------|
F|---------6---6------------|
C|--------------------------|
G|--------------------------|
C|--------------------------|


d|------7-------6-------7-------9--|------7-------6-------7-------9--|
A|-------------------------------------------------------------------|
F|--8-------8-------8-------8------|--8-------8-------8-------8------|
C|---------------------------------|---------------------------------|
G|---------------------------------|---------------------------------|
C|---------------------------------|---------------------------------|
 |Er traf ein Mädchen,das war blind|Geteiltes Leid und gleichgesinnt.| 
 |Sah einen Stern vom Himmel gehen.|Und wünschte sich sie könnte sehn| 
 |Sie hat die Augen aufgemacht.....|Verließ ihn noch zur selben......|
 |Nacht............................|.................................|
 |.................................|.................................| 

 
***************************************************************

Rammstein|Rosenrot|Hilf mir


d|-----------------------------------------------[Giriş/Intro]-|
A|-------------------------------------------------------------|
F|-------------------------------------------------------------|
C|-4444444444444444-444444--0000/333--|--4-4-4-4-4-4--0000-666-|
G|------------------444444--0000/333--|--4-4-4-4-4-4--0000-444-|
C|------------------444444--0000/333--|--4-4-4-4-4-4--0000-----|

d|------------------------------------------------|
A|------------------------------------------------|
F|------------------------------------------------|
C|-444444--0000/333--|--444444-12-0-0-0-0/333-4~--|
G|-444444--0000/333--|--444444----------0/333-4~--|
C|-444444--0000/333--|--444444----------0/333-4~--|


d|---------------------------------------------[Köprü/Bridge]-|
A|------------------------------------------------------------|
F|-11-11-11-11-11-11-----99999999-|-777777-------44444444-----|
C|-11-11-11-11-11-11-----99999999-|-777777-------44444444-----|
G|-9--9--9--9--9--9------77777777-|-555555-------22222222-----|
C|--------------------------------|---------------------------|
 |Immer wenn ich ein sam bin......|Zieht es mich zum Feuer hin| 

d|------------------------------------------------------------|
A|------------------------------------------------------------|
F|-11-11-11-11-11-11----99999999--|--777777------99999999-----|
C|-11-11-11-11-11-11----99999999--|--777777------99999999-----|
G|-9--9--9--9--9--9-----77777777--|--555555------77777777-----|
C|--------------------------------|---------------------------|
 |Warum ist die Sonne rund........|Warum werd ich nicht gesund| 


d|----------------------------------------------|
A|----------------------------------------------|
F|----------------------------------------------|
C|--444444--0000/333--|--444444-12-0-0-0-0/3~---|
G|--444444--0000/333--|--444444----------0/3~---|
C|--444444--0000/333--|--444444----------0/3~---|


d|-[Riff 1]-|
A|----------|
F|----------|
C|--444444--|
G|--444444--|
C|--444444--|
 |Oh weh die Flamme fäßt das Kleid... 
 |Die Jacke brennt es leuchtet weit... 
 |Es brennt die Hand es brennt das Haar... 
 |Ich brenn am ganzen Leib sogar... 


d|-----------------------------------------------[Köprü/Bridge]-|
A|--------------------------------------------------------------|
F|-11-11-11-11-11-11----99999999---|-777777-------44444444------|
C|-11-11-11-11-11-11----99999999---|-777777-------44444444------|
G|-9--9--9--9--9--9-----77777777---|-555555-------22222222------|
C|---------------------------------|----------------------------|
 |Immer wenn ich ein sam bin.......|Zieht es mich zum Feuer hin| 

d|------------------------------------------------------------|
A|------------------------------------------------------------|
F|-11-11-11-11-11-11----99999999--|--777777------99999999-----|
C|-11-11-11-11-11-11----99999999--|--777777------99999999-----|
G|-9--9--9--9--9--9-----77777777--|--555555------77777777-----|
C|--------------------------------|---------------------------|
 |Warum ist die Sonne rund........|Warum werd ich nicht gesund|


d|----[Riff 1]-|
A|-------------|
F|-------------|
C|--44444444---|
G|--44444444---|
C|--44444444---|


d|--------------------------------------[Koro/Chorus]-|
A|----------------------------------------------------|
F|----------------------------------------------------|
C|-4------|-9--------|-4-------------|-7--------------|
G|-4------|-9--------|-4-------------|-7--------------|
C|-4------|-9--------|-4-------------|-7--------------|
 |Hilf mir|......Hilf|mir...Das Feuer|liebt mich nicht|
 |Hilf mir|......Hilf|mir...Das Feuer|liebt mich nicht|
 
Ich bin verbrannt mit Haut und Haar... 
Verbrannt ist alles ganz und gar... 
Aus der Asche ganz allein... 
Steig ich auf zum Sonnen...

d|-----------[Riff 2]-|
A|--------------------|
F|--------------------|
C|-4444444444444333---|
G|-4444444444444333---|
C|-4444444444444333---|
 |schein..............|
 |Das Feuer liebt mich|
 |Das Feuer liebt mich|
 |Das Feuer liebt mich|..ja|


d|----[Riff 3]-|
A|-------------|
F|-------------|
C|--44444444---|
G|--44444444---|
C|--44444444---|
 |Hilf mir!!!!!|

********************************************************

Rammstein|Rosenrot|Te quiero puta 

Adelante amigos...
d|----------------------------[Giriş/Intro]-|
A|------------------------------------------|
F|------------------------------------------|
C|-1-----|----------------------------------|
G|-1-----|-0h1p0-0h1p0-0h1p0-0h1p0-1p0-1p0--|
C|-1-----|-0h1p0-0h1p0-0h1p0-0h1p0-1p0-1p0--|


d|--------------[Bridge/Köprü]-|
A|-----------------------------|
F|-----------------------------|
C|-----------------------------|
G|-----------------------------|
C|-0-3-1-0-1-0x-0x-0x-1-0-1-0--|
 |Dame de tu fruta.............| 
 |Vamos mi amor................|


d|---------------[Dize/Verse]-|
A|----------------------------|
F|----------------------------|
C|----------------------------|
G|-0-3-1-0-1-0x-0x-0x-1-0-1-0-|
C|-0-3-1-0-1-0x-0x-0x-1-0-1-0-|
 |Te quiero puta!.............|
 |Te quiero puta!.............|
 |.................Ay que rico|                

d|----------------------------------------------------------|
A|----------------------------------------------------------|
F|----------------------------------------------------------|
C|-1------------------------|-------------------------------|
G|-1------------------------|-0-3-1-0-1-0x-0x-0x-0-1-0-1-0--|
C|-1------------------------|-0-3-1-0-1-0x-0x-0x-0-1-0-1-0--|
 |Entre tus piernas voy a llo|rar...........................| 
 |Feliz y triste voy a es....|tar...........................| 
                                                          
d|-------------------------------|
A|-------------------------------|
F|-------------------------------|
C|-1---------------------|-0-----|
G|-1---------------------|-0-----|
C|-1---------------------|-0-----|
 |Feliz y triste voy a es|tar....|


d|------------------------------------------|
A|------------------------------------------|
F|------------------------------------------|
C|--x--x--x---x--x--x--|--x--x--x---x--x--x-|
G|--x--x--x---x--x--x--|--x--x--x---x--x--x-|
C|--x--x--x---x--x--x--|--x--x--x---x--x--x-|
 |Más más más por favor|Más más más sí señor|
 |Más más más por favor|Más más más sí señor|

d|-------------------------------------------------|
A|-------------------------------------------------|
F|-------------------------------------------------|
C|--x--x--x---x--x--x--|-x--x--x--x--7-8-7---------|
G|--x--x--x---x--x--x--|-x--x--x--x---------9-8-6--|
C|--x--x--x---x--x--x--|-x--x--x--x----------------|
 |.................................................|
 |No me tengas miedo.......No te voy a comer.......|

d|------------------------------------------|
A|------------------------------------------|
F|------------------------------------------|
C|--x--x--x--x--x--x---|--x--x--x--x--x--x--|
G|--x--x--x--x--x--x---|--x--x--x--x--x--x--|
C|--x--x--x--x--x--x---|--x--x--x--x--x--x--|
 |Más más más por favor|Más más más sí señor|

d|------------------------------------------|
A|------------------------------------------|
F|------------------------------------------|
C|--x--x--x---x--x--x--|--x--x--x---x--x--x-|
G|--x--x--x---x--x--x--|--x--x--x---x--x--x-|
C|--x--x--x---x--x--x--|--x--x--x---x--x--x-|
 |..........................................|
 |...............................Sí sí señor|

d|----------------------------------|
A|----------------------------------|
F|----------------------------------|
C|----------------------------------|
G|-0h1p0-0h1p0-0h1p0-0h1p0-1p0-1p0--|
C|-0h1p0-0h1p0-0h1p0-0h1p0-1p0-1p0--|

*************************************************

Rammstein|Rosenrot|Feuer & Wasser 

d|---------------------------------|
A|---------------------------------|
F|---------------------------------|
C|-0---0---0---0---0---0---0---0---|
G|---0---0---0---0---0---0---0---0-|
C|-0-------------------------------|

d|--------------------------------------|
A|--------------------------------------|
F|--------------------------------------|
C|-0---0---0---0----0---0---0---0-------|
G|---0---0---0---0----0---0---0---0-----|
C|-0----------------0-------------------|

d|-------------------------------------|
A|-------------------------------------|
F|-------------------------------------|
C|-0---2---3---7-----0---2---3---7-----|
G|-------------------------------------|
C|---0---2---3---7-----0---2---3---7---|
 |Wenn sie Brust schwimmt ist das schön|

d|-----------------------------------|
A|-----------------------------------|
F|-----------------------------------|
C|-0---2---3---7-----0---2---3---7---|
G|-----------------------------------|
C|---0---2---3---7-----0---2---3---7-|
 |dann kann ich in ihr Zentrum sehn..|

d|----------------------------------------|
A|----------------------------------------|
D|----------------------------------------|
C|-12----10----8---7-----0---2---3---7----|
G|----------------------------------------|
C|----12----10---8---7-----0---2---3---7--|
 |Nicht dass die Brust das Schöne wär.....|

d|------------------------------------|
A|------------------------------------|
F|------------------------------------|
C|--0---2---3---7-----0---2---3---7---|
G|------------------------------------|
C|----0---2---3---7-----0---2---3---7-|
 |Ich schwimm ihr einfach hinterher...|

d|------------------------------------|
A|------------------------------------|
F|------------------------------------|
C|--0---2---3---7-----0---2---3---7---|
G|------------------------------------|
C|----0---2---3---7-----0---2---3---7-|
 |Ich schwimm ihr einfach hinterher...|

d|---------------------------------------|
A|---------------------------------------|
F|---------------------------------------|
C|-0---2---3---7-----12----10----8---7---|
G|---------------------------------------|
C|---0---2---3---7------12----10---8---7-|
 |Funkenstaub fließt aus der Mitte.......|

d|-------------------------------------|
A|-------------------------------------|
F|-------------------------------------|
C|-0---0---0---0---0---0---0---0-------|
G|---0---0---0---0---0---0---0---0-----|
C|-0-----------------------------------|
 |ein Feuerwerk springt aus dem Schritt|

d|--------------------------------------|
A|--------------------------------------|
F|--------------------------------------|
C|-8---8---8---8---|-5---5---7---7------|
G|-----------------|--------------------|
C|---8---8---8---8-|---5---5---7---7----|
 |Feuer und Wasser.|kommt nicht zusammen|
                                      

d|-----------------------------------------------|
A|-----------------------------------------------|
F|-----------------------------------------------|
C|-0---0---0---0-------|-10----10----10----10----|
G|---0---0---0---0-----|-------------------------|
C|-0-------------------|----10----10----10----10-|
 |Kann man nicht binden|sind nicht verwandt......|

d|---------------------------------------|
A|---------------------------------------|
F|---------------------------------------|
C|-8---8---8---8-----|-5---5---7---7-----|
G|-------------------|-------------------|
C|---8---8---8---8---|---5---5---7---7---|
 |In Funken versunken|steh ich in Flammen|

d|----------------------------------------|
A|----------------------------------------|
F|----------------------------------------|
C|-0---0---7---7---|-10----10-----8---8---|
G|---0---0---------|----------------------|
C|-0--------7---7--|----10----10----8---8-|
 |.......und bin im|Wasser verbrannt......|

d|-----------------------------------|
A|-----------------------------------|
F|-----------------------------------|
C|-8---8---8---8---|-5---5---7---7---|
G|-----------------|-----------------|
C|---8---8---8---8-|---5---5---7---7-|
 |...............Im|Wasser verbrannt.|

d|---------------------------------|
A|---------------------------------|
F|---------------------------------|
C|-0---0---0---0---0---0---0---0---|
G|---0---0---0---0---0---0---0---0-|
C|-0-------------------------------|

d|-------------------------------------|
A|-------------------------------------|
F|-------------------------------------|
C|-0---2---3---7-----0---2---3---7-----|
G|-------------------------------------|
C|---0---2---3---7-----0---2---3---7---|
 |Wenn sie nackt schwimmt ist das schön|

d|-----------------------------------|
A|-----------------------------------|
F|-----------------------------------|
C|-0---2---3---7-----0---2---3---7---|
G|-----------------------------------|
C|---0---2---3---7-----0---2---3---7-|
 |dann will ich sie von hinten sehn..|

d|---------------------------------------|
A|---------------------------------------|
F|---------------------------------------|
C|-12----10----8---7-----0---2---3---7---|
G|---------------------------------------|
C|----12----10---8---7-----0---2---3---7-|
 |Nicht dass die Brüste reizvoll wären...|

d|-----------------------------------|
A|-----------------------------------|
F|-----------------------------------|
C|-0---2---3---7-----0---2---3---7---|
G|-----------------------------------|
C|---0---2---3---7-----0---2---3---7-|
 |Die Beine öffnen sich wie Scheren..|

d|---------------------------------------|
A|---------------------------------------|
F|---------------------------------------|
C|-0---2---3---7-----12----10----8---7---|
G|---------------------------------------|
C|---0---2---3---7------12----10---8---7-|
 |Dann leuchtet heiß aus dem Versteck....|
 
d|---------------------------------|
A|---------------------------------|
F|---------------------------------|
C|-0---0---0---0---0---0---0-------|
G|---0---0---0---0---0---0---0-----|
C|-0-------------------------------|
 |die Flamme aus dem Schenkeleck ja|

d|--------------------------------------|
A|--------------------------------------|
F|--------------------------------------|
C|-8-----------------|-5------7---------|
G|-8-----------------|-5------7---------|
C|-8-----------------|-5------7---------|
 |Sie schwimmt vorbei|bemerkt mich nicht|

d|--------------------|
A|--------------------|
F|--------------------|
C|-0------------------|
G|-0------------------|
C|-0------------------|
 |Ich bin ihr Schatten|

d|----------------------------------------|
A|----------------------------------------|
F|----------------------------------------|
C|-10---------------|-8-------------------|
G|-10---------------|-8-------------------|
C|-10---------------|-8-------------------|
 |sie steht im Licht|Da ist keine Hoffnung|

d|-------------------------|
A|-------------------------|
F|-------------------------|
C|-5--------7--------------|
G|-5--------7--------------|
C|-5--------7--------------|
 |und keine Zuversicht denn|

d|-------------------------------------------[Koro 1/Chorus 1]-|
A|-------------------------------------------------------------|
F|-------------------------------------------------------------|
C|--8---------------|--5-------7---------|--0------------------|
G|--8---------------|--5-------7---------|--0------------------|
C|--8---------------|--5-------7---------|--0------------------|
 |Feuer und Wasser..|kommt nicht zusammen|Kann man nicht binden|
 
d|-----------------------------------------------------------|
A|-----------------------------------------------------------|
F|-----------------------------------------------------------|
C|-10----------------|-8-----------------|-5------7----------|
G|-10----------------|-8-----------------|-5------7----------|
C|-10----------------|-8-----------------|-5------7----------|
 |sind nicht verwandt|In Funken versunken|steh ich in Flammen|

d|----------------------------------------------------|
A|----------------------------------------------------|
F|----------------------------------------------------|
C|-0--------|-10-------------|-8----|-5-----7---------|
G|-0--------|-10-------------|-8----|-5-----7---------|
C|-0--------|-10-------------|-8----|-5-----7---------|
 |und bin im|Wasser verbrannt|....im|Wasser verbrannt|


d|--------------------------------------------|
A|--------------------------------------------|
F|--------------------------------------------|
C|--8-------|--3------------------------------|
G|--8-------|--3------------------------------|
C|--8-------|--3------------------------------|
 |..........|sokocht das Blut in meinen Lenden|


d|------------|||
A|------------||| 
F|------------|||----------------[Köprü/Bridge/Guitar 1]-|    
C|-0---x--x---|||    
G|-0---x--x---|||     
C|-0---x--x---|||
                |Ich halt sie fest mit nassen Händen.....|
                |Glatt wie ein Fisch und kalt wie Eis....|
                |sie wird sich nicht an mich verschwenden|
                |Ich weiß................................|

d|---------[Köprü/Bridge/Guitar 2]-|
A|---------------------------------|
D|---------------------------------|
C|-0---2---3---7---0---2---3---7---|
G|---------------------------------|
C|---0---2---3---7---0---2---3---7-|
                                   
d|-------------------------------------|
A|-------------------------------------|
F|-------------------------------------|
C|--0---2---3---7-----0---2---3---7----|
G|-------------------------------------|
C|----0---2---3---7-----0---2---3---7--|
 |Glatt wie ein Fisch und kalt wie Eis.|
 |Ich halt sie fest mit nassen Händen..|

d|-------------------------------------|
A|-------------------------------------|
F|-------------------------------------|
C|-12----10----8---7---0---2---3---7---|
G|-------------------------------------|
C|----12----10---8---7---0---2---3---7-|
                                       

d|----------------------------------|
A|----------------------------------|
F|----------------------------------|
C|-0---2---3---7----0---2---3---7---|
G|----------------------------------|
C|---0---2---3---7----0---2---3---7-|
 |sie wird sich nicht an mich.......|

d|-------------------------------------------[Koro 2/Chorus 2]-|
A|-------------------------------------------------------------|
F|-------------------------------------------------------------|
C|-8------|-5--7------|-0------|-10------|-8------|-5----7-----|
G|-8------|-5--7------|-0------|-10------|-8------|-5----7-----|
C|-8------|-5--7------|-0------|-10------|-8------|-5----7-----|


ich weiss.....
d|---6-5-------------5-6-3~--5~--5/10~--10~--12-13-12-------|
A|-3-----6~--6~--5-3----------------------------------3-5-6-|
F|----------------------------------------------------------|


d|---6---5-6-3-3-15-13-10-12-13-17^18^17-15-13-11-10-8~/10-|
A|-3---3---------------------------------------------------|
F|---------------------------------------------------------|
C|------------------------------------[Akordeon/Accordion]-|

*****************************************************************

Rammstein|Rosenrot|Ein Leid

e|------------------------[Giriş/Intro]-|
H|--------------------------------------|
G|--------------------------------------|
D|-----3-------3----|------2-------2----|
A|---3---3---3---3--|----2---2---2---2--|
D|-3-------3--------|--2-------2--------|

e|---------------------------------------|
H|---------------------------------------|
G|---------------------------------------|
D|------5--------5----|------2-------2---|
A|----5---5----5---5--|----2---2---2---2-|
D|--5--------5--------|--2-------2-------|

e|--------------------------------------|
H|--------------------------------------|
G|--------------------------------------|
D|-----3-------3----|------2-------2----|
A|---3---3---3---3--|----2---2---2---2--|
D|-3-------3--------|--2-------2--------|

d|---------------------------------------|
A|---------------------------------------|
F|---------------------------------------|
C|------5--------5----|------2-------2---|
G|----5---5----5---5--|----2---2---2---2-|
C|--5--------5--------|--2-------2-------|

e|----------------------[Dize/Verse]-|
H|-----------------------------------|
G|-----------------------------------|
D|-----3-------3---|-----2-------2---|
A|---3---3---3---3-|---2---2---2---2-|
D|-3-------3-------|-2-------2-------|
 |Wer Gutes tut dem|wird vergeben....| 
 |Dann bekommt ihr.|bald Besuch......| 
 |Wir sind für die.|Musik geboren....|
 |Immer wenn ihr...|traurig seid.....|

e|---------------------------------------|
H|---------------------------------------|
G|---------------------------------------|
D|------5--------5-----|-----2-------2---|
A|----5---5----5---5---|---2---2---2---2-|
D|--5--------5---------|-2-------2-------|
 |So seid recht gut auf|allen Wegen......|
 |wir kommen mit dem...|Liederbuch.......|
 |spielen wir..........|für euch.........|
 |spielen wir..........|für euch.........|

                                   
e|------------------|-----------1~------------------|
H|-------3~--1~-----|--------3~---3~--5~---3~-------|  
G|----2~--------2~--|-----2~---------------------2~-|
D|-5~---------------|--5~---------------------------|
A|--------------------------------------------------|
D|--------------------------------[Klavye/Keyboard]-|
 |..................................................|



15 comments total. Showing first comments.
0 reply
z3r0element07 wrote on December 8 2005, 07:27 pm

There isn't an H string on a guitar now is there?

0 reply
auslander1980 wrote on December 9 2005, 08:24 am

i know standard tuning |eBGDAE| but "B" don't using in German Note System ok?? So,i give "H" to my tab.Rammstein is a Real German band and i used German Note System.

0 reply
killswitch_mike wrote on January 28 2006, 01:22 pm

oh well, we arent german are we?

I want to post or [tab]
guest
You may want to rate the tab now too:
select rating
Please do not post tabs as comments. Select "correction" instead!