Oops, an error
Loading. Please wait.

Sehnsucht Tab

ver1
ver1

Album

Whole song

Interactive

More versions @911Tabs.com
25,811 views 27 this week
no commentswrite comment
1 2 3 4 5
worth learning
x 7
Autoscroll
+/-
esc
set tempo
stop
Contributor
Difficulty
advanced
Hey! There's an official Ultimate Guitar app which is ideal
for learning songs when you're away from computer. Get the app
WARNING: You are trying to view
                                    content from Ultimate-Guitar.com
                                    in an unauthorized application,
                                    which is prohibited.

                                    Please use an official Ultimate
                                    Guitar Tabs application for iPhone,
                                    iPad or Android to access legitimate
                                    chords, guitar, bass, and drum tabs
                                    from Ultimate-Guitar.com database.

                                    Type "ultimate guitar tabs" in Apple
                                    App Store's or Android Market's
                                    search to find the application.
Rammstein
Album Sehnsucht
Tuning: Standard (EADGBE) and DADGBE
-----------------

1: Sehnsucht

Intro / Main riff
e|----------------------------------------------------------------|
B|----------------------------------------------------------------|
G|*-------------9\8-------10\9-------12-----------10---------9\7-*|
D|*-------------9\8-------10\9-------12-----------10---------9\7-*|
A|--------------7\6--------8\7-------10------------8---------7\5--|
E|--0---0---0---------0----------0--------0---0--------0-0--------|
pm  .   .   .         .          .        .   .        . .


Entry riff after the guitar intro
e|--------------------|
B|--------------------|
G|--------------------|
D|--------------------|
A|-----5---4---4---2--|
E|-----3---2---2---0--|
pm     .   .   .   .


Chorus 1
e|----------------------------------------------------------------|
B|----------------------------------------------------------------|
G|*-------------9\8-------10\9-------12-----------10---------9\7-*|
D|*-------------9\8-------10\9-------12-----------10---------9\7-*|
A|--------------7\6--------8\7-------10------------8---------7\5--|
E|--0---0---0---------0----------0--------0---0--------0-0--------|
pm  .   .   .         .          .        .   .        . .


Break 1 to chorus 1 (2:10)
e|-----------------------------------------------------------------|
B|-----------------------------------------------------------------|
G|--------------9-----------7-----------7--------------------------|
D|--------------7-----------5-----------5--------------------------|
A|--0---0---0-------0---0-------0---0-------0---0---5---5---4---3--|
E|--------------------------------------------------3---3---2---1--|
pm  .   .   .       .   .       .   .       .   .   .   .   .   .


Break 2 to chorus 1
e|---------------------------|
B|---------------------------|
G|---------------------------|
D|--10------5------7------2--|
A|--10------5------7------2--|
E|---8------3------5------0--|


Chorus 2
e|----------------------------------------------------------------------------------|
B|----------------------------------------------------------------------------------|
G|*--------------------------------------------5------5---4---2--------------------*|
D|*-2----------------------2-------------------5------5---4---2--------------------*|x2
A|--2------5---5---4---3---2---5---5---4---3---3------3---2---0------5---5---4---3--|
E|--0------3---3---2---1---0---3---3---2---1-------------------------3---3---2---1--|
pm         .   .   .   .       .   .   .   .                         .   .   .   .

------------------------------------------------------------------------------------

2: Engel

Main riff
e|-----------------------------------|   |-----------------------------------|
B|-----------------------------------|   |-----------------------------------|
G|*----------------------------------|   |----------------------------------*|
D|*----------------------------------|x3 |----------------------------------*|
A|--3h5-----6p5-----3h5---3h5---6p5--|   |--3h5-----6p5-----3h5---3h5--------|
D|------0-0-----0-0-----0-----0------|   |------0-0-----0-0-----0-----3-3-3--|
pm      . .     . .     .     .                 . .     . .     .     . . .


Harmonic bending in the pre-chorus
e|--------|
B|--------|
G|*------*|
D|*-7^b9-*|
A|--------|
D|--------|

------------------------------------------------------------------------------------

3: Tier

Intro / End
Acoustic guitar
G | A# | C | F


Main riff / Bridge to the chorus
e|--------------------------------------------------------------------|
B|--------------------------------------------------------------------|
G|*------------------------------------------------------------------*|
D|*-----------------8---7---5/7---------------------8---10---8\7-----*|
A|--3h5-----3h5-----6---5---3/5-----3h5-----3h5-----6----8---6\5------|
D|------0-0-----0-0---0---0-----0-0-----0-0-----0-0---0----0-----0-0--|
pm      . .     . .   .   .     . .     . .     . .   .    .     . .


e|----------------------------------------------------------------|
B|----------------------------------------------------------------|
G|----------------------------------------------------------------|
D|------------------8---7---5/7---------------------8---10---8\7--|
A|--3h5-----3h5-----6---5---3/5-----3h5-----3h5-----6----8---6\5--|
D|------0-0-----0-0---0---0-----0-0-----0-0-----0-0---0----0------|
pm      . .     . .   .   .     . .     . .     . .   .    .


1st chorus
e|-------------------------------------------------------------------------|
B|-------------------------------------------------------------------------|
G|-------------------------------------------------------------------------|
D|--3/5-----3/5-----5/8-----5/8-----8/10-------8/10-------0-3-----0-3------|
A|--3/5-----3/5-----5/8-----5/8-----8/10-------8/10-------0-3-----0-3------|
D|--3/5-5-5-3/5-5-5-5/8-8-8-5/8-8-8-8/10-10-10-8/10-10-10-0-3-3-3-0-3-3-3--|
pm      . .     . .     . .     . .       .  .       .  .     . .     . .


e|----------------------------------------|
B|----------------------------------------|
G|----------------------------------------|
D|--3/5-----3/5-----5/8-----5/8-----8/10--|
A|--3/5-----3/5-----5/8-----5/8-----8/10--|
D|--3/5-5-5-3/5-5-5-5/8-8-8-5/8-8-8-8/10--|
pm      . .     . .     . .     . .


During the third verse
Sie taucht die Feder in sein Blut ...
e|-------------------|
B|-------------------|
G|*-----------------*|
D|*-------5/7---5/7-*|x4
A|--------5/7---5/7--|
D|--5-5-5-5/7-5-5/7--|
pm  . . .     .


2nd chorus
e|-------------------------------------------------------------------------|
B|-------------------------------------------------------------------------|
G|*-----------------------------------------------------------------------*|
D|*-3/5-----3/5-----5/8-----5/8-----8/10-------8/10-------0-3-----0-3-----*|x3
A|--3/5-----3/5-----5/8-----5/8-----8/10-------8/10-------0-3-----0-3------|
D|--3/5-5-5-3/5-5-5-5/8-8-8-5/8-8-8-8/10-10-10-8/10-10-10-0-3-3-3-0-3-3-3--|
pm      . .     . .     . .     . .       .  .       .  .     . .     . .


e|-------------------------------------------------------------------------|
B|-------------------------------------------------------------------------|
G|-------------------------------------------------------------------------|
D|--3/5-----3/5-----5/8-----5/8-----8/10-------8/10-------0-3--------------|
A|--3/5-----3/5-----5/8-----5/8-----8/10-------8/10-------0-3--------------|
D|--3/5-5-5-3/5-5-5-5/8-8-8-5/8-8-8-8/10-10-10-8/10-10-10-0-3-3-0-0-0-0-0--|
pm      . .     . .     . .     . .       .  .       .  .     . . . . . .

------------------------------------------------------------------------------------

4: Bestrafe Mich

Intro
1st guitar
e|------------------------------------------------|
B|------------------------------------------------|
G|--4------4------4---5-----------------5------4--|
D|--4------4------4---5------2----------5------4--|
A|--2------2------2---3------2----------3------2--|
D|---------------------------2------2-2-----------|
pm                                  . .


2nd guitar
e|--------------------------------------------------|
B|--------------------------------------------------|
G|--------------------------------------------------|
D|--9------9------9---10------9----------10------9--|
A|--9------9------9---10------7------7-7-10------9--|
D|--9------9------9---10-----------------10------9--|
pm                                   . .


Both guitars
e|-----------------------------------------------------------------|
B|-----------------------------------------------------------------|
G|-----------------------------------------------------------------|
D|-----------------------------------------------------------------|
A|--3-3-2---2---2---3-3-2---2---2---3-3-2---2---2---5/7-2---2---2--|
D|--3-3-2---2---2---3-3-2---2---2---3-3-2---2---2---5/7-2---2---2--|
pm  . . .   .   .   . . .   .   .   . . .   .   .       .   .   .


e|-------------------------------------------------------------------|
B|-------------------------------------------------------------------|
G|-------------------------------------------------------------------|
D|-------------------------------------------------------------------|
A|--3-3-2---2---2---3-3-2---2---2---3-3-2---2---2---5-5-2-2-5-5-2-2--|
D|--3-3-2---2---2---3-3-2---2---2---3-3-2---2---2---5-5-2-2-5-5-2-2--|
pm  . . .   .   .   . . .   .   .   . . .   .   .   . . . . . . . .


1st guitar
e|-----------------------------------------|
B|-----------------------------------------|
G|-----------------------------------------|
D|--2---2---2---2---2---2---------------2--|
A|--2---2---2---2---2---2---5-5-2-2-5-5-2--|
D|--2---2---2---2---2---2---5-5-2-2-5-5-2--|
pm                          . . . . . .


2nd guitar
e|-----------------------------------------|
B|-----------------------------------------|
G|-----------------------------------------|
D|--9---9---9---9---9---9---------------2--|
A|--7---7---7---7---7---7---5-5-2-2-5-5-2--|
D|--------------------------5-5-2-2-5-5-2--|
pm                          . . . . . .


Verse
e|-----------------------------------------------------------------|
B|-----------------------------------------------------------------|
G|*---------------------------------------------------------------*|
D|*-2---2---2---2---2---2---2---2---2---2---2---2---2---2---1---0-*|
A|--2---2---2---2---2---2---2---2---2---2---2---2---2---2---1---0--|
D|--2---2---2---2---2---2---2---2---2---2---2---2---2---2---1---0--|
pm  .   .   .   .   .   .   .   .   .   .   .   .   .   .   .   .


Chorus
1st guitar
e|------------------------------------------------|
B|------------------------------------------------|
G|--4------4------4---5-----------------5------4--|
D|--4------4------4---5------2----------5------4--|
A|--2------2------2---3------2----------3------2--|
D|---------------------------2------2-2-----------|
pm                                  . .


2nd guitar
e|--------------------------------------------------|
B|--------------------------------------------------|
G|--------------------------------------------------|
D|--9------9------9---10------9----------10------9--|
A|--9------9------9---10------7------7-7-10------9--|
D|--9------9------9---10-----------------10------9--|
pm                                   . .


Both guitars
e|-----------------------------------------------------------------|
B|-----------------------------------------------------------------|
G|-----------------------------------------------------------------|
D|-----------------------------------------------------------------|
A|--3-3-2---2---2---3-3-2---2---2---3-3-2---2---2---5/7-2---2---2--|
D|--3-3-2---2---2---3-3-2---2---2---3-3-2---2---2---5/7-2---2---2--|
pm  . . .   .   .   . . .   .   .   . . .   .   .       .   .   .


e|-----------------------------------------------------------------|
B|-----------------------------------------------------------------|
G|-----------------------------------------------------------------|
D|--------------------------------------------------------------2--|
A|--3-3-2---2---2---3-3-2---2---2---3-3-2---2---2---5-5-2-2-5-5-2--|
D|--3-3-2---2---2---3-3-2---2---2---3-3-2---2---2---5-5-2-2-5-5-2--|
pm  . . .   .   .   . . .   .   .   . . .   .   .   . . . . . .


Ending riff
1st guitar
e|-----------------------------------------------------------------|
B|-----------------------------------------------------------------|
G|*-4-4-4---4---4---4-4-4---4---4---5-5-5---5---5---5-5-5---5---5--|
D|*-4-4-4---4---4---4-4-4---4---4---4-4-4---4---4---4-4-4---4---4--|
A|--2-2-2---2---2---2-2-2---2---2---2-2-2---2---2---2-2-2---2---2--|
D|-----------------------------------------------------------------|
pm  . . .   .   .   . . .   .   .   . . .   .   .   . . .   .   .


e|-----------------------------------------------------------------|
B|-----------------------------------------------------------------|
G|--5-5-5---5---5---5-5-5---5---5----------------------------------|
D|--5-5-5---5---5---5-5-5---5---5---2-2-2---2---2---2-2-2---2---2--|
A|--3-3-3---3---3---3-3-3---3---3---2-2-2---2---2---2-2-2---2---2--|
D|----------------------------------2-2-2---2---2---2-2-2---2---2--|
pm  . . .   .   .   . . .   .   .   . . .   .   .   . . .   .   .


e|-----------------------------------------------------------------|
B|-----------------------------------------------------------------|
G|--5-5-5---5---5---5-5-5---5---5---4-4-4---4---4---4-4-4---4---4-*|
D|--5-5-5---5---5---5-5-5---5---5---4-4-4---4---4---4-4-4---4---4-*|x2
A|--3-3-3---3---3---3-3-3---3---3---2-2-2---2---2---2-2-2---2---2--|
D|-----------------------------------------------------------------|
pm  . . .   .   .   . . .   .   .   . . .   .   .   . . .   .   .


2nd guitar
e|---------------------------------------------------------------------------|
B|---------------------------------------------------------------------------|
G|*--------------------------------------------------------------------------|
D|*-9-9-9---9---9---9-9-9---9---9---10-10-10---10---10---10-10-10---10---10--|
A|--9-9-9---9---9---9-9-9---9---9----9--9--9----9----9----9--9--9----9----9--|
D|--9-9-9---9---9---9-9-9---9---9----9--9--9----9----9----9--9--9----9----9--|
pm  . . .   .   .   . . .   .   .    .  .  .    .    .    .  .   .   .    .


e|---------------------------------------------------------------------------|
B|---------------------------------------------------------------------------|
G|---------------------------------------------------------------------------|
D|--10-10-10---10---10---10-10-10---10---10---9-9-9---9---9---9-9-9---9---9--|
A|--10-10-10---10---10---10-10-10---10---10---7-7-7---7---7---7-7-7---7---7--|
D|--10-10-10---10---10---10-10-10---10---10----------------------------------|
pm   .  .  .    .    .    .  .  .    .    .   . . .   .   .   . . .   .   .


e|---------------------------------------------------------------------------|
B|---------------------------------------------------------------------------|
G|--------------------------------------------------------------------------*|
D|--10-10-10---10---10---10-10-10---10---10---9-9-9---9---9---9-9-9---9---9-*|x2
A|--10-10-10---10---10---10-10-10---10---10---9-9-9---9---9---9-9-9---9---9--|
D|--10-10-10---10---10---10-10-10---10---10---9-9-9---9---9---9-9-9---9---9--|
pm   .  .  .    .    .    .  .  .    .    .   . . .   .   .   . . .   .   .


Both guitars
e|-------------------------------------|
B|-------------------------------------|
G|-------------------------------------|
D|----------------------------------2--|
A|--2---2---2---2---5-5-2-2-5-5-2-5-2--|
D|--2---2---2---2---5-5-2-2-5-5-2-5-2--|
pm  .   .   .   .   . . . . . . . .


------------------------------------------------------------------------------------

5: Du Hast

Intro
e|---------------------------------------------------------------|
B|---------------------------------------------------------------|
G|*-------------------------------------------------------------*|
D|*-7\5-----------------------7\5-------------------------------*|x3
A|--7\5---2---2---2-2-2---2-2-7\5---2---2---2---2-2-2---2-2-2-2--|
E|--5\3---0---0---0-0-0---0-0-5\3---0---0---0---0-0-0---0-0-0-0--|
pm        .   .   . . .   . .       .   .   .   . . .   . . . .


e|---------------------------------|
B|---------------------------------|
G|---------------------------------|
D|--5/7----------------------------|
A|--5/7---7---7---7-7-7---7-7-7-7--|
E|--3/5---5---5---5-5-5---5-5-5-5--|
pm        .   .   . . .   . . . .


Chorus
e|---------------------------------------------------------------|
B|---------------------------------------------------------------|
G|*--------------------------------------------------------------|
D|*-7\5-----------------------7\5--------------------------------|
A|--7\5---2---2---2-2-2---2-2-7\5---2---2---2---2-2-2---2-2-2-2--|
E|--5\3---0---0---0-0-0---0-0-5\3---0---0---0---0-0-0---0-0-0-0--|
pm        .   .   . . .   . .       .   .   .   . . .   . . . .


e|---------------------------------------------------------------|
B|---------------------------------------------------------------|
G|---------------------------------------------------------------|
D|--5/7---------------------------5/7----------------------------|
A|--5/7---7---7---7-7-7---7-7-7-7-5/7---7---7---7-7-7---7-7-7-7--|
E|--3/5---5---5---5-5-5---5-5-5-5-3/5---5---5---5-5-5---5-5-5-5--|
pm        .   .   . . .   . . . .       .   .   . . .   . . . .


e|------------------------------------------------------------------------|
B|------------------------------------------------------------------------|
G|------------------------------------------------------------------------|
D|--7/10------------------------------12\9--------------------------------|
A|--7/10---10---10---10-10-10---10-10-12\9---9---9---9---9-9-9---9-9-9-9--|
E|--5/-8----8----8----8--8--8----8--8-10\7---7---7---7---7-7-7---7-7-7-7--|
pm          .    .    .  .  .    .  .        .   .   .   . . .   . . . .


e|---------------------------------------------------------------|
B|---------------------------------------------------------------|
G|---------------------------------------------------------------|
D|--7\5-----------------------7\5-------------------------------*|
A|--7\5---2---2---2-2-2---2-2-7\5---2---2---2---2-2-2---2-2-2-2-*|
E|--5\3---0---0---0-0-0---0-0-5\3---0---0---0---0-0-0---0-0-0-0--|
pm        .   .   . . .   . .       .   .   .   . . .   . . . .

------------------------------------------------------------------------------------

6: Bück Dich

Main riff
e|-----------------------------------||-----------------------------------|
B|-----------------------------------||-----------------------------------|
G|-----------------------------------||*---------------------------------*|
D|--0---3---2---3---5---3---0-2-3-0--||*-----3---2---3---5---3---0-2-3-0-*|
A|--0---3---2---3---5---3---0-2-3-0--||------3---2---3---5---3---0-2-3-0--|
D|--0-0-3-0-2-0-3-0-5-0-3-0-0-2-3-0--||--0-0-3-0-2-0-3-0-5-0-3-0-0-2-3-0--|
pm    .   .   .   .   .   .              . .   .   .   .   .   .


Verse
[ With \"WAH-WAH\" and Lesley ]
e|-----------------------------------|   |-----------------------------------|
B|-----------------------------------|   |-----------------------------------|
G|*---------------------------------*|   |-----------------------------------|
D|*---------------------------------*|   |--------------------------0-2-3-0--|
A|-----------------------------------|   |--------------------------0-2-3-0--|
D|--0-0-3-0-2-0-3-0-5-0-3-0-0-2-3-0--|   |--0-0-3-0-2-0-3-0-5-0-3-0-0-2-3-0--|
pm  . . . . . . . . . . . . . . . .         . . . . . . . . . . . .


Bridge
e|---------------------------------------------------------------------------------------------------|
B|---------------------------------------------------------------------------------------------------|
G|---------------------------------------------------------------------------------------------------|
D|----1---1---1---1---1---1---1---1-0---3---2---3---5---3---0-2-3-0-----3---2---3---5---3---0-2-3-0--|
A|----1---1---1---1---1---1---1---1-0---3---2---3---5---3---0-2-3-0-----3---2---3---5---3---0-2-3-0--|
D|--1-1-1-1-1-1-1-1-1-1-1-1-1-1-1-1-0-0-3-0-2-0-3-0-5-0-3-0-0-2-3-0-0-0-3-0-2-0-3-0-5-0-3-0-0-2-3-0--|
pm  .   .   .   .   .   .   .   .     .   .   .   .   .   .         . .   .   .   .   .   .


e|-----------------------------------------------|
B|-----------------------------------------------|
G|-----------------------------------------------|
D|----1---1---1---1---1---1---1---1-0-(sustain)--|
A|----1---1---1---1---1---1---1---1-0-(sustain)--|
D|--1-1-1-1-1-1-1-1-1-1-1-1-1-1-1-1-0-(sustain)--|
pm  .   .   .   .   .   .   .   .


Ending
e|-----------------------------------|   |-----|
B|-----------------------------------|   |-----|
G|*---------------------------------*|   |-----|
D|*---1---1---1---1---1---1---1---1-*|x2 |--0--|
A|----1---1---1---1---1---1---1---1--|   |--0--|
D|--1-1-1-1-1-1-1-1-1-1-1-1-1-1-1-1--|   |--0--|
pm  .   .   .   .   .   .   .   .

------------------------------------------------------------------------------------

7: Spiel Mit Mir

Verse
e|-----------------------------------------------------|
B|-----------------------------------------------------|
G|*---------4-----------------------------------------*|
D|*---------2-----------------------------------------*|
A|--2-2-2---2-2-2-2---2-2-2---2-2-2---2-2---3-3---3-3--|
E|--0-0-0-----0-0-0---0-0-0---0-0-0---0-0---1-1---1-1--|
pm  . . .     . . .   . . .   . . .   . .   . .   . .


Bridge
e|-----------------------------------------------------------|
B|-----------------------------------------------------------|
G|-----------------------------------------------------------|
D|----------7------------------------------------------------|
A|--7-7-7---7-7-7-7---7-7-7---7-7-7---7-7---8---8-8-5---5-5--|
E|--5-5-5-----5-5-5---5-5-5---5-5-5---5-5---6---6-6-3---3-3--|
pm  . . .     . . .   . . .   . . .   . .   .   . . .   . .


e|---------------------------------------------|
B|---------------------------------------------|
G|---------------------------------------------|
D|----------7----------------------------------|
A|--7-7-7---7-7-7-7---7-7-7---7-7-7---7-7---8--|
E|--5-5-5-----5-5-5---5-5-5---5-5-5---5-5---6--|
pm  . . .     . . .   . . .   . . .   . .   .


Chorus
e|-------------------------------------------------------|
B|-------------------------------------------------------|
G|*-----------------------------------------------------*|
D|*-----------------------------------------------------*|
A|--9-9-9---2-2-2---2-2-2---7-7-7---7-7-3---3-3-2---2-2--|
E|--7-7-7---0-0-0---0-0-0---5-5-5---5-5-1---1-1-0---0-0--|
pm  . . .   . . .   . . .   . . .   . . .   . . .   . .


e|---------------------------------------------|
B|---------------------------------------------|
G|---------------------------------------------|
D|--------------------------------------3---2--|
A|--9-9-9---2-2-2---2-2-2---7-7-7---7-7-3---2--|
E|--7-7-7---0-0-0---0-0-0---5-5-5---5-5-1---0--|
pm  . . .   . . .   . . .   . . .   . .


Solo
[ With chorus and some slight pitch-down bending with the whammy bar ]
Repeat the figure below as necessary
e|---------------------------------------------||-----------|
B|--0h12p0h12p0h12p0h12p0h12p0h12p0h12p0h12p0--||--12^/15~--|
G|*-------------------------------------------*||-----------|
D|*-------------------------------------------*||-----------|
A|---------------------------------------------||-----------|
E|---------------------------------------------||-----------|


Bridge (3:46)
e|---------------------------------------------------|
B|---------------------------------------------------|
G|---------------------------------------------------|
D|--8---5-----------7--------------------------------|
A|--8---5---7-7-7---7-7-7-7---7-7-7---7-7-7---7-7-8--|
E|--6---3---5-5-5-----5-5-5---5-5-5---5-5-5---5-5-6--|
pm          . . .     . . .   . . .   . . .   . . .

------------------------------------------------------------------------------------

8: Klavier

Intro / Verse
e|------5---5---------------------------5-------5--------5------------|
B|--------------8-------6---8---5---------------8-8------6-6-----5----|
G|----5---5---5---5---5---5---5---5---5---5---5--------5-------5---5--|
D|--7---------------7---------------7-------7-------7--------7--------|
A|--------------------------------------------------------------------|
D|--------------------------------------------------------------------|


e|---------------------------------------------------------------------|
B|------8---8---6-----------6-----------8-------7----------------------|
G|----------------------9-------9------------------------9--------9----|
D|----7---7---7---7---7---7---7---7---9---9---9---9----9---9----9---9--|
A|--8---------------8---------------7-------7-------11-------11--------|
D|---------------------------------------------------------------------|


Chorus
e|-----------------------------------------------------------------------------------|
B|-----------------------------------------------------------------------------------|
G|-----------------------------------------------------------------------------------|
D|--8-8-8-8-8-8-8-8-8-8-8-8-8-8-8-8-12-12-12-12-12-12-12-12-12-12-12-12-12-12-12-12--|x3
A|--8-8-8-8-8-8-8-8-8-8-8-8-8-8-8-8-12-12-12-12-12-12-12-12-12-12-12-12-12-12-12-12--|
D|--8-8-8-8-8-8-8-8-8-8-8-8-8-8-8-8-12-12-12-12-12-12-12-12-12-12-12-12-12-12-12-12--|


e|-----------------------------------------------------------------------------------------|
B|-----------------------------------------------------------------------------------------|
G|-----------------------------------------------------------------------------------------|
D|--13-13-13-13-13-13-13-13-13-13-13-13-13-13-13-13-12-12-12-12-10-10-8-8-7-7-7-7-7-7-7-7--|
A|--13-13-13-13-13-13-13-13-13-13-13-13-13-13-13-13-12-12-12-12-10-10-8-8-7-7-7-7-7-7-7-7--|
D|--13-13-13-13-13-13-13-13-13-13-13-13-13-13-13-13-12-12-12-12-10-10-8-8-7-7-7-7-7-7-7-7--|


Rhythm behind the keyboard solo
e|-------------------------------------------------------------------|
B|-------------------------------------------------------------------|
G|-------------------------------------------------------------------|
D|--2-2-2-2/9-9-9-9-9-9-9-9-9-9-9-9-9-9-9-9\7-7-7-7-7-7-7-7-7-7-7-7--|x2
A|--2-2-2-2/9-9-9-9-9-9-9-9-9-9-9-9-9-9-9-9\7-7-7-7-7-7-7-7-7-7-7-7--|
D|--2-2-2-2/9-9-9-9-9-9-9-9-9-9-9-9-9-9-9-9\7-7-7-7-7-7-7-7-7-7-7-7--|


e|-----------------------------------------------------------------------------------|
B|-----------------------------------------------------------------------------------|
G|-----------------------------------------------------------------------------------|
D|--7-7-7-7/9-9-9-9\3-3-3-3-3-3-3-3-3-3-3-3-3-3-3-3-3-3-3-3-3-3-3-3-3-3-3-3-3-3-3-3--|
A|--7-7-7-7/9-9-9-9\3-3-3-3-3-3-3-3-3-3-3-3-3-3-3-3-3-3-3-3-3-3-3-3-3-3-3-3-3-3-3-3--|
D|--7-7-7-7/9-9-9-9\3-3-3-3-3-3-3-3-3-3-3-3-3-3-3-3-3-3-3-3-3-3-3-3-3-3-3-3-3-3-3-3--|


e|-------------------------------------|
B|-------------------------------------|
G|-------------------------------------|
D|--2-2-2-2-2-2-2-2-2-2-2-2-2-2-2-2----|
A|--2-2-2-2-2-2-2-2-2-2-2-2-2-2-2-2----|
D|--2-2-2-2-2-2-2-2-2-2-2-2-2-2-2-2----|

------------------------------------------------------------------------------------

9: Alter Mann

Intro / Verse
e|---------||-------------------------------------------------------------------|
B|---------||-------------------------------------------------------------------|
G|---------||*-----------------------------------------------------------------*|
D|---------||*---2-----2---2-----2-----2---2-----2-----2---2-----2-----0-2-3-2-*|
A|---------||----2-----2---2-----2-----2---2-----2-----2---2-----2-----0-2-3-2--|
D|--0-0-0--||--0-2-2-2-2-2-2-2-2-2-2-2-2-2-2-2-2-2-2-2-2-2-2-2-2-2-2-2-0-2-3-2--|
pm  . . .      .   . .   .   . .   . .   .   . .   . .   .   . .   . .


Chorus
e|-----------------------------------------------------------------------------------|
B|-----------------------------------------------------------------------------------|
G|*----------------------------------------------------------------------------------|
D|*----10-------10----10-------10-------10----10------9-----9---9-----9-----9---9----|
A|-----10-------10----10-------10-------10----10------9-----9---9-----9-----9---9----|
D|--10-10-10-10-10-10-10-10-10-10-10-10-10-10-10-10-9-9-9-9-9-9-9-9-9-9-9-9-9-9-9-9--|
pm   .     .  .     .     .  .     .  .     .     . .   . .   .   . .   . .   .   .


e|-----------------------------------------------------------------------------------|
B|-----------------------------------------------------------------------------------|
G|----------------------------------------------------------------------------------*|
D|-----10-------10----10-------14-------14----14------9-----9---9-----9-----9---9---*|x2
A|-----10-------10----10-------14-------14----14------9-----9---9-----9-----9---9----|
D|--10-10-10-10-10-10-10-10-14-14-14-14-14-14-14-14-9-9-9-9-9-9-9-9-9-9-9-9-9-9-9-9--|
pm   .     .  .     .     .  .     .  .     .     . .   . .   .   . .   . .   .   .


End of the chorus
e|---------------------------------------------------------------|
B|---------------------------------------------------------------|
G|---------------------------------------------------------------|
D|-----10-------10----10-------10-------10----10----7------------|
A|-----10-------10----10-------10-------10----10----7------------|
D|--10-10-10-10-10-10-10-10-10-10-10-10-10-10-10-10-7---7-8-7-5--|
pm   .     .  .     .     .  .     .  .     .     .


Final chord
e|-----|
B|-----|
G|-----|
D|--2--|
A|--2--|
D|--2--|

------------------------------------------------------------------------------------

10: Eifersucht

Intro
e|---------------------------------|
B|---------------------------------|
G|*-------------------------------*|
D|*-----------------------------5-*|x8
A|--2---2---2-2-2---2---2-3-4---5--|
D|--2---2---2-2-2---2---2-3-4---5--|
pm  .   .   . . .   .   . . .


Verse
e|---------------------------------|   |---------------------------------------|
B|---------------------------------|   |---------------------------------------|
G|*-------------------------------*|   |---------------------------------------|
D|*-----------------------------5-*|x8 |--0----------2---3---0----------2---3--|
A|--2---2---2-2-2---2---2-3-4---5--|   |--0------0---2---3---0----------2---3--|
D|--2---2---2-2-2---2---2-3-4---5--|   |--0------0---2---3---0------0-0-2---3--|
pm  .   .   . . .   .   . . .                                       . .


1st verse break only!
1st guitar
e|---------------------------------------------------|
B|---------------------------------------------------|
G|---------------------------------------------------|
D|------0-----------2---3---0-------2---3------10\2--|
A|------0-------0-0-2---3---0-------2---3------10\2--|
D|--0---0-------0-0-2---3---0---0---2---3------10\2--|
pm  .                           .


2nd guitar
e|---------------------------------------------------|
B|---------------------------------------------------|
G|---------------------------------------------------|
D|------3---0-------2---3---0-------2---3------10\2--|
A|------3---0---0-0-2---3---0-------2---3------10\2--|
D|--0---3---0---0-0-2---3---0---0---2---3------10\2--|
pm  .                           .


Breaks in all other verses
Both guitars
e|---------------------------------------------------|
B|---------------------------------------------------|
G|---------------------------------------------------|
D|------0-----------2---3---0-------2---3------10\2--|
A|------0-------0-0-2---3---0-------2---3------10\2--|
D|--0---0-------0-0-2---3---0---0---2---3------10\2--|
pm  .                           .

------------------------------------------------------------------------------------

11: Küss Mich

Intro / Main riff
e|-----------------------------------------|
B|-----------------------------------------|
G|*---------------------------------------*|
D|*-----3-------3-------3-------3-------0-*|
A|------3-------3-------3-------3-------0--|
D|--0---3---0---3---0-0-3---0---3---0---0--|
pm  .       .       . .     .       .


Chorus
1st guitar
Fast tremolo on these chords
[ With ?WAH-WAH? ]
e|------------------------------------------------------------------------------|
B|---------10-----11-------13---10------------------------------11\10---11-\10--|
G|--7-------x------x--------x----x------7------9------9/10-------x--x----x---x--|
D|--x-------7------8-------10----7------x------x------x/-x-------8\-7----8-\-7--|
A|--5-----------------------------------5------7------7/-8----------------------|
D|------------------------------------------------------------------------------|


2nd guitar
e|--------------------------------------------------------------|
B|--------------------------------------------------------------|
G|---------2------3------5---2-------------2------3------5---2--|
D|--0------2------3------5---2------0------2------3------5---2--|
A|--0------0------1------3---0------0------0------1------3---0--|
D|--0-------------------------------0---------------------------|

------------------------------------------------------------------------------------

That's It. Have fun. Enjoy playing

PM = Palm Mute
H = Harmonics
P = Pull Of
F = Finger Style
comments
print report bad tab
I want to post or [tab]
guest
You may want to rate the tab now too:
select rating
Please do not post tabs as comments. Select "correction" instead!