Oops, an error
Loading. Please wait.

Ramones Bass Tab

ver1
ver1

Album

Whole song

More versions @911Tabs.com
9,404 views 21 this week
no commentswrite comment
1 2 3 4 5
worth learning
x 4
add to favorites launch autoscroll
font size
0
reset
Autoscroll
+/-
esc
set tempo
stop
Contributor
WARNING: You are trying to view
                                    content from Ultimate-Guitar.com
                                    in an unauthorized application,
                                    which is prohibited.

                                    Please use an official Ultimate
                                    Guitar Tabs application for iPhone,
                                    iPad or Android to access legitimate
                                    chords, guitar, bass, and drum tabs
                                    from Ultimate-Guitar.com database.

                                    Type "ultimate guitar tabs" in Apple
                                    App Store's or Android Market's
                                    search to find the application.
-------------------------------------------------------------------------------
			     RAMONES - RAMONES
-------------------------------------------------------------------------------
Tabbed by: Stefan
Email: stehphyn@yahoo.com

___________________________________________
BLITZKRIEG BOP

main riff/verse:
G|---------------------------------|
D|---------------------------------|
A|-----------------5---5-7---7-7-7-|
E|-5-5-5-5-5-5-5-5-----------------| x3

G|---------------------------------|
D|---------------------------------|
A|---------5-5-5-5-----------------|
E|-5-5-5-5---------5-5-5-5-5-5-5-5-| 


pre-verse (hey ho, lets go)
G|---------------------------------|
D|---------------------------------|
A|---------------------------------|
E|-5-5-5-5-5-5-5-5-5-5-5-5-5-5-5-5-| x2


chorus:
G|-----------------------------------------------------------------|
D|-----------------------------------------------------------------|
A|-5-5-5-5-5-5-5-5-5-5-5-5-5-5-5-5-----------------5-5-5-----------|
E|---------------------------------5-5-5-5-5-5-5-5-------5-5-5-5-5-|

G|-----------------------------------------------------------------|
D|-----------------------------------------------------------------|
A|-5-5-5-5-5-5-5-5-5-5-5-5-5-5-5-5-----------------5-5-5-7-7-7-7-7-|
E|---------------------------------7-7-7-7-7-7-7-7-----------------|



___________________________________________
BEAT ON THE BRAT

intro:
G|-----------------------------------------------|
D|-9-9-9-9-9-9-----9-9-9-9-9-9-----9-9-----9-9---|
A|-------------7---------------7-------7-------7-|
E|-----------------------------------------------|


verse:
G|---------------------------------|
D|-9-9-9-9-9-9-9-9-9-9-9-9-9-9-9-9-|
A|---------------------------------|
E|---------------------------------| x3

G|---------------------------------|
D|---------------------------------|
A|-7-7-7-7-7-7-7-7-9-9-9-9-9-9-9-9-|
E|---------------------------------|

...do the above verse part again (x2), then:

G|---------------------------------|
D|-9-9-9-9-9-9-9-9-9-9-9-9-9-9-9-9-|
A|---------------------------------|
E|---------------------------------| 

G|---------------------------------|
D|---------------------------------|
A|-7-7-7-7-7-7-7-7-9-9-9-9-9-9-9-9-|
E|---------------------------------|

G|---------------------------------|
D|-9-9-9-9-9-9-9-9-9-9-9-9-9-9-9-9-|
A|---------------------------------|
E|---------------------------------| 


pre-chorus:
G|---------------------------------|
D|-7-7-7-7-7-7-7-7-4-4-4-4-4-4-4-4-|
A|---------------------------------|
E|---------------------------------| x2


chorus:
G|---------------------------------|
D|-9-9-9-9-9-9-9-9-----------------|
A|-----------------7-7-7-7-7-7-7-7-|
E|---------------------------------| x2

G|---------------------------------|
D|-9-9-9-9-9-9-9-9-9-9-9-9-9-9-9-9-|
A|---------------------------------|
E|---------------------------------|

G|---------------------------------|
D|-7-7-7-7-7-7-7-7-4-4-4-4-4-4-4-4-|
A|---------------------------------|
E|---------------------------------|

G|---------------------------------|
D|-9-9-9-9-9-9-9-9-----------------|
A|-----------------7-7-7-7-7-7-7-7-|
E|---------------------------------| x2

G|---------------------------------|
D|-9-9-9-9-9-9-9-9-9-9-9-9-9-9-9-9-|
A|---------------------------------|
E|---------------------------------|

G|---------------------------------|
D|-7-7-7-7-7-7-7-7-4-4-4-4-4-4-4-4-|
A|---------------------------------|
E|---------------------------------| x2


post-chorus:
G|---------------------------------------------------------------|
D|-9-9-9-9-9-9-----9-9-9-9-9-9-----9-9-----9-9-----9-9-----9-9---|
A|-------------7---------------7-------7-------7-------7-------7-|
E|---------------------------------------------------------------|


end:
G|-------------------------------------------------------|
D|-9-9-9-9-9-9-----9-9-9-9-9-9-----9-9-----9-9-----9-9---|
A|-------------7---------------7-------7-------7-------7-|
E|-------------------------------------------------------|



___________________________________________
JUDY IS A PUNK

verse:
G|---------------------------------|
D|---------------------------------|
A|-6-6-6-6-6-6-6-6-6-6-6-6-6-6-6-6-|
E|---------------------------------| x2

G|-------------------------------------------------|
D|-----------------8-8-8-8-8-8-8-8-8-8-8-8-8-8-8-8-|
A|-6-6-6-6-6-6-6-6---------------------------------|
E|-------------------------------------------------|


pre-chorus:
G|---------------------------------|
D|-6-6-6-6-6-6-6-6-8-8-8-8-8-8-8-8-|
A|---------------------------------|
E|---------------------------------| x2


chorus:
G|---------------------------------|
D|-----------------8-8-8-8-8-8-8-8-|
A|-6-6-6-6-6-6-6-6-----------------|
E|---------------------------------| x4


verse 2:
G|---------------------------------|
D|-8-8-8-8-8-8-8-8-8-8-8-8-8-8-8-8-|
A|---------------------------------|
E|---------------------------------| 

G|---------------------------------|
D|---------------------------------|
A|-6-6-6-6-6-6-6-6-6-6-6-6-6-6-6-6-|
E|---------------------------------| 

G|-------------------------------------------------|
D|-----------------8-8-8-8-8-8-8-8-8-8-8-8-8-8-8-8-|
A|-6-6-6-6-6-6-6-6---------------------------------|
E|-------------------------------------------------|


bridge:
G|---------------------------------|
D|-----------------8-8-8-8-8-8-8-8-|
A|-6-6-6-6-6-6-6-6-----------------|
E|---------------------------------| x4



___________________________________________
I WANNA BE YOUR BOYFRIEND

intro:
G|---------------------------------|
D|---------------------------------|
A|-7---7-7-7-7-7-7-----------------|
E|-----------------5---5-5-7-7-7-7-| x2


verse:
G|---------------------------------|
D|---------------------------------|
A|-7---7-7-7-7-7-7-----------------|
E|-----------------5---5-5-7-7-7-7-| x4


pre-chorus:
G|---------------------------------|
D|---------------------------------|
A|---------------------------------|
E|-9---9-9-9-9-9-9-5---5-5-5-5-5-5-| x4


chorus:
G|---------------------------------|
D|---------------------------------|
A|-7---7-7-7-7-7-7-----------------|
E|-----------------5---5-5-7-7-7-7-| x6



___________________________________________
CHAIN SAW

intro:
G|-----------------------------------------------------------------|
D|-7---7-7-7-7-7-7-4---4-4-4-4-4-4-9---9-9-9-9-9-9-----------------|
A|-------------------------------------------------7---7-7-7-7-7-7-|
E|-----------------------------------------------------------------| 

G|-----------------------------------------------------------------|
D|-7-7-7-7-7-7-7-7-4-4-4-4-4-4-4-4-9-9-9-9-9-9-9-9-----------------|
A|-------------------------------------------------7-7-7-7-7-7-7-7-|
E|-----------------------------------------------------------------|


verse:
G|---------------------------------|
D|-7-7-7-7-7-7-7-7-4-4-4-4-4-4-4-4-|
A|---------------------------------|
E|---------------------------------| x2

G|---------------------------------|
D|-9-9-9-9-9-9-9-9-----------------|
A|-----------------7-7-7-7-7-7-7-7-|
E|---------------------------------| x2

that 2x, then:

G|---------------------------------|
D|---------------------------------|
A|-9-9-9-9-9-9-9-9-7-7-7-7-7-7-7-7-|
E|---------------------------------|


chorus:
G|---------------------------------|
D|-7-7-7-7-7-7-7-7-4-4-4-4-4-4-4-4-|
A|---------------------------------|
E|---------------------------------| x2

G|---------------------------------|
D|-9-9-9-9-9-9-9-9-----------------|
A|-----------------7-7-7-7-7-7-7-7-|
E|---------------------------------| x2

that 2x, then:

G|---------------------------------|
D|---------------------------------|
A|-9-9-9-9-9-9-9-9-7-7-7-7-7-7-7-7-|
E|---------------------------------|


bridge:
G|-----------------------------------------------------------------|
D|---------------------------------7-7-7-7-7-7-7-7-7-7-7-7-7-7-7-7-|
A|-7-7-7-7-7-7-7-7-7-7-7-7-7-7-7-7---------------------------------|
E|-----------------------------------------------------------------|

G|-----------------------------------------------------------------|
D|-----------------------------------------------------------------|
A|-7-7-7-7-7-7-7-7-7-7-7-7-7-7-7-7-9-9-9-9-9-9-9-9-9-9-9-9-9-9-9-9-|
E|-----------------------------------------------------------------|


outro:
G|---------------------------------|
D|-7-7-7-7-7-7-7-7-4-4-4-4-4-4-4-4-|
A|---------------------------------|
E|---------------------------------| 



___________________________________________
NOW I WANNA SNIFF SOME GLUE

entire song:
G|---------------------------------|
D|-7-7-7-7-7-7-7-7-5-5-5-5-5-5-5-5-|
A|---------------------------------|
E|---------------------------------| x4

G|---------------------------------|
D|-7-------5-------3-------2-------|
A|---------------------------------|
E|---------------------------------|

G|---------------------------------|
D|-7-------5-------3-------2-------|
A|---------------------------------|
E|---------------------------------|

G|---------------------------------|
D|-------------5-7-------------5---|
A|-7-7-7-7-5-7-----7-7-7-7-5-7-----|
E|---------------------------------| x4

G|-----------------------------------------|
D|-7-------5-------3-------2-2-2-2-2-2-2-2-|
A|-----------------------------------------|
E|-----------------------------------------|

G|---------------------------------|
D|-7-7-7-7-7-7-7-7-5-5-5-5-5-5-5-5-|
A|---------------------------------|
E|---------------------------------| x8

G|-----------------------------------------------------------------|
D|-7-7-7-7-7-7-7-7-5-5-5-5-5-5-5-5-3-3-3-3-3-3-3-3-2-2-2-2-2-2-2-2-|
A|-----------------------------------------------------------------|
E|-----------------------------------------------------------------| x3

G|---------------------------------------------------|
D|-7-7-7-7-7-7-7-7-5-5-5-5-5-5-5-5-3-3-3-3-3-3-3-3-2-|
A|---------------------------------------------------|
E|---------------------------------------------------| 



___________________________________________
I DONT WANNA GO DOWN TO THE BASEMENT

intro:
G|-9---9-----------9-9-9-----------|
D|-------9---9-9-9-------9---9-9-9-|
A|---------------------------------|
E|---------------------------------| 

G|-7---7-----------7-7-7-----------|
D|-------7---7-7-7-------7---7-7-7-|
A|---------------------------------|
E|---------------------------------|

G|-5---5-----------5-5-5-----------| 
D|-------5---5-5-5-------5---5-5-5-|
A|---------------------------------|
E|---------------------------------| 

G|---------------------------------| 
D|-6h7-7-7-6h7-7-7-6h7-7-7---------| 
A|-------------------------7---5---|
E|---------------------------------| x4


main riff:
G|-----------------------------------------------------------------|  
D|-----------------------------------------------------------------|  
A|-7---7-7-7-7-7-7-------7---7-7-7-5---5-5-5-5-5-5-------5---5-5-5-|  
E|-----------------7---7---------------------------5---5-----------| x4

G|---------------------------------| 
D|-7-7-7-7-7-7-7-7-7-7-7-7-3---5---| 
A|---------------------------------| 
E|---------------------------------| x4



___________________________________________
LOUDMOUTH

intro:
G|---------------------------------|
D|---------------------------------|
A|-----------------7---7-----------|
E|-5-5-5-5-5-5-5-5-------7---7-7-7-| x4

G|-------------------------|
D|-5---7-------------------|
A|---------7-7-7-7-7-7-7-7-|
E|-------------------------| x2

G|-------------------------|
D|-5---7-------------------|
A|---------5-5-5-5-5-5-5-5-|
E|-------------------------| x2


main riff:
G|-----------------------------------|
D|-9-9-9-9-5-5-5-5-7-7-7-7-----------|
A|-------------------------7---7-7-7-|
E|-----------------------------------| x4


outro:
G|-----------------------------------------------------------------|
D|-----------------------------------------------------------------|
A|-7---------------5---------------3-------------------------------|
E|-------7---7-7-7-------5---5-5-5-------3---3-3-3-7-7-7-7-7-7-7-7-|



___________________________________________
HAVANA AFFAIR

intro:
G|---------------------------------|
D|-9---9-9-9-9-9-9---------7-7-7-7-|
A|-----------------5---5-5---------|
E|---------------------------------| x2


verse:
G|------------------------------------------------------------------------|
D|-9---9-9-9-9-9-9-------------------------7-7-7-7-7-7-7-7----------------|
A|-----------------10-10-10-10-10-10-10-10----------------9-9-9-9-9-9-9-9-|
E|------------------------------------------------------------------------| x2


chorus:
G|-----------------------------------------|
D|-----------------------------------------|
A|-10-10-10-10-10-10-10-10-9-9-9-9-9-9-9-9-|
E|-----------------------------------------| x2

G|-------------------------------------|
D|-9-9-9-9-9-9-9-9---------------------|
A|-----------------10-10-10-10-9-9-9-9-|
E|-------------------------------------| x2


post-chorus/bridge:
G|-----------------------|
D|-----------------------|
A|-----------------5---7-|
E|-5h7-7-7-7-7-7-7-------| x4



___________________________________________
LISTEN TO MY HEART

verse:
G|---------------------------------|
D|-----------------7---7-7-7-7-7-7-|
A|-5---5-5-5-5-5-5-----------------|
E|---------------------------------| x4

G|-------------------------------------------------|
D|-----------------5---5-5-5-5-5-5-----------------|
A|-7---7-7-7-7-7-7-----------------7---7-7-7-7-7-7-|
E|-------------------------------------------------|

G|------------------|
D|-6h7--7-7-7-7-7-7-|
A|------------------|
E|------------------| x4

G|---------------------------------|
D|-----------------7---7-7-7-7-7-7-|
A|-5---5-5-5-5-5-5-----------------|
E|---------------------------------| x4

G|---------------------------------|
D|---------------------------------|
A|-7---7-7-7-7-7-7-7---7-7-7-7-7-7-|
E|---------------------------------|


chorus:
G|---------------------------------|
D|-----------------7---7-7-7-7-7-7-|
A|-4---4-4-4-4-4-4-----------------|
E|---------------------------------|

G|---------------------------------|
D|-----------------7---7-7-7-7-7-7-|
A|-7---7-7-7-7-7-7-----------------|
E|---------------------------------| x2

G|---------------------------------|
D|-9-9-9-9-9-9-9-9-9-9-9-9-9-9-9-9-|
A|---------------------------------|
E|---------------------------------| 


outro:
G|---------------------------------|
D|-----------------7---7-7-7-7-7-7-|
A|-5---5-5-5-5-5-5-----------------|
E|---------------------------------| x7

G|---------------------------------|
D|-----------------7---------------|
A|-5---5-5-5-5-5-5-----------------|
E|---------------------------------|



___________________________________________
53RD & 3RD

verse:
G|---------------------------------|
D|-------------------------7-7-7-7-|
A|-7-7-7-7-7---7---5-5-5-5---------|
E|---------------------------------| 


chorus:
G|---------------------------------|
D|---------7-7-7-7-5-5-5-5-7-7-7-7-|
A|-5-5-5-5-------------------------|
E|---------------------------------| 


bridge:
G|---------------------------------|
D|---------------------------------|
A|---------------------------------|
E|-7-7-7-7-7-7-7-7-5-5-5-5-5-5-5-5-| x2

G|---------------------------------|
D|---------------------------------|
A|---------------------------------|
E|-3-3-3-3-3-3-3-3-5-5-5-5-5-5-5-5-| x2


3rd chorus:
G|---------------------------------|
D|---------9-9-9-9-7-7-7-7-9-9-9-9-|
A|-7-7-7-7-------------------------|
E|---------------------------------| 



___________________________________________
LETS DANCE

main part:
G|---------------------------------|
D|---------------------------------|
A|-3-3-3-3-3-3-3-3-3-3-3-3-3-3-3-3-|
E|---------------------------------|

G|---------------------------------|
D|-5-5-5-5-5-5-5-5-5-5-5-5-5-5-5-5-|
A|---------------------------------|
E|---------------------------------|

G|---------------------------------|
D|---------------------------------|
A|-5-5-5-5-5-5-5-5-3-3-3-3-3-3-3-3-|
E|---------------------------------| x2

G|---------------------------------|
D|-5-5-5-5-5-5-5-5-5-5-5-5-5-5-5-5-|
A|---------------------------------|
E|---------------------------------| x2


bridge:
G|-----------------------------------------------------------------|
D|-5---5-5-5-5-5-5---------------------------------3---3-3-3---3-3-|
A|-----------------2---2-2-2-2-2-2-5---5-5-5-5-5-5-----------------|
E|-----------------------------------------------------------------|

G|-----------------------------------------------------------------|
D|---------------------------------5---5-5-5-5-5-5-5-5-5-5-5-5-5-5-|
A|-3---3-3-3-3-3-3-3-3-3-3-3-3-3-3---------------------------------|
E|-----------------------------------------------------------------|

G|-----------------------------------------------------------------|
D|-----------------------------------------------------------------|
A|-5---5-5-5-5-5-5-3---3-3-3-3-3-3-5---5-5-5-5-5-5-3---3-3-3-3-3-3-|
E|-----------------------------------------------------------------|

G|-----------------------------------------------------------------|
D|-5---5-5-5-5-5-5-5-5-5-5-5-5-5-5-5---5-5-5-5-5-5-5-5-5-5-5-5-5-5-|
A|-----------------------------------------------------------------|
E|-----------------------------------------------------------------|



___________________________________________
I DONT WANNA WALK AROUND WITH YOU

intro/post-chorus:
G|---------------------------------|
D|---------------------------------|
A|-7---7---5h7-7-7-5h7-7-5---7-7---|
E|---------------------------------|

G|---------------------------------|
D|-5---5---3h5-5-5-3h5-5-3---5-5-5-|
A|---------------------------------|
E|---------------------------------|

G|-------------------------------------|
D|-5h7---5h7---5h7-7-7-5h7-7-5-7-7-7-7-|
A|-------------------------------------|
E|-------------------------------------|


verse:
G|-----------------7--7-7h5---7-5h7-5-|
D|-5h7-7-7-5h7-7-7--------------------|
A|------------------------------------|
E|------------------------------------|

G|-----------------7---7-7-7-7-5h7-5-|
D|-5---7-7-5h7-7-7-------------------|
A|-----------------------------------|
E|-----------------------------------|

G|-----------------7---7-5h7---7-7-7-|
D|-7---7-7-7-7-7-7-------------------|
A|-----------------------------------|
E|-----------------------------------|


chorus:
G|---------------------------------|
D|-5-5-5-5-5-5-5-5-7-7-7-7-7-7-7-7-|
A|---------------------------------|
E|---------------------------------| x3


during guitar solo:
G|---------------------------------|
D|---------------5h7-7-5h7---7-7-7-|
A|-7---7-5h7-7-7-------------------|
E|---------------------------------| x4



___________________________________________
TODAY YOUR LOVE, TOMORROW THE WORLD

verse:
G|-----------------------------------------------------------------|
D|-----------------5-5-5-5-5-5-5-5-2-2-2-2-2-2-2-2-2-2-2-2-2-2-2-2-|
A|-3-3-3-3-3-3-3-3-------------------------------------------------|
E|-----------------------------------------------------------------| X4


chorus:
G|---------------------------------|
D|---------------------------------|
A|-5---5-5-5-5-5-5-7---7-7-7-7-7-7-|
E|---------------------------------| X4


outro:
G|-----9---------------------------|
D|-7-----7---7-7-7-----------------|
A|-----------------5---5-7---7-7-7-|
E|---------------------------------|

G|---------------------------------|
D|-7-7-7-7-7-7-7-7-----------------|
A|-----------------5-5-5-7-7-7-7-7-|
E|---------------------------------| x5

I want to post or [tab]
guest
You may want to rate the tab now too:
select rating
Please do not post tabs as comments. Select "correction" instead!