Oops, an error
Loading. Please wait.

Rocket To Russia Bass Tab

2,067 views 9 this week
no commentswrite comment
1 2 3 4 5
accurate
x 2
add to favorites launch autoscroll
font size
0
reset
Autoscroll
+/-
esc
set tempo
stop
Contributor
WARNING: You are trying to view
                                    content from Ultimate-Guitar.com
                                    in an unauthorized application,
                                    which is prohibited.

                                    Please use an official Ultimate
                                    Guitar Tabs application for iPhone,
                                    iPad or Android to access legitimate
                                    chords, guitar, bass, and drum tabs
                                    from Ultimate-Guitar.com database.

                                    Type "ultimate guitar tabs" in Apple
                                    App Store's or Android Market's
                                    search to find the application.
1.Cretin Hop

Intro 
G-----------------------------|
D------7----------------------|
A-7-7----7-7-7-7-7-7-7-7-5-5--|
E-----------------------------|

Verse 
G-------------------------------------------------------------|
D-------------------------------------------------------------|
A-0-0-0-0-0-0-0-0-0-0-0-0-0-0-0-7-7-7-7-7-7-7-7-7-7-7-7-7-7-7-|
E-------------------------------------------------------------|

Chorus
G---------------------------------|
D---------------------------------|
A-----------------7-7-7-7-7-7-7-7-|
E-7-7-7-7-7-7-7-7-----------------|

****************************************************************************


2.Rockaway Beach

Intro                           x2
G---------------------------------|
D---------------------------------|
A-4/5-5-5-5-5-5-5-5-5-5-5-5-5-5-5-|
E---------------------------------|

Verse 
G--------------------------------------------|-------------------------|
D--------------------------------------------|-------------------------|
A--------------------------------------------|-5-5-5-5-5-5-7-7-7-7-7-7-|
E-4/5-5-5-5--4/5-5-5-5--4/5-5-5-5--4/5-5-5-5-|-------------------------|

Chorus
G-------------------------------------------------------------------|
D-------------------------------------------------------------------|
A-----------------5-5-5-5-5-5-5-5-5-----------------7-7-7-7-7-7-7-7-|
E-5-5-5-5-5-5-5-5-------------------5-5-5-5-5-5-5-5-----------------|

Interlude
G----------------------------------------|
D-5-------------------3------------------|
A---5--5-5-5-5-5-5-5----3--3-3-3-3-3-3-3-|
E----------------------------------------|

Bridge
G-------------------------------------------------------------------|
D-------------------------------------------------------------------|
A---------------------------------------------------5-5-5-5-7-7-7-7-|
E-2-2-2-2-2-2-2-2--5-5-5-5-5-5-5-5--2-2-2-2-2-2-2-2-----------------|

End
G-----|
D-----|
A-5---|
E---5-|

****************************************************************************


3. Here Today Gone Tomorrow


Chorus                                                                
G-------------------------------------------------------------------------|
D-------------------------------------------------------------------------|
A-5-5-5-5-5-5-5-5-----------------5-5-5-5-5-5-5-5-----------------5-5-5-5-|
E-----------------2-2-2-2-2-2-2-2-----------------2-2-2-2-0-0-0-0---------|

G---------------------------------------------------------------------------------|
D---------------------------------------------------------------------------------|
A-5-5-5-5-5-5-5-5-----------------5-5-5-5-5-5-5-5---------7-7-7-7-5-5-5-5-5-5-5-5-|
E-----------------2-2-2-2-2-2-2-2-----------------2-2-2-2-------------------------|

Verse                  x3
G------------------------|-----------|
D----------------4---4---|-----------|
A-5-5-7-7------2---2---2-|-----------|
E---------2-2------------|-0----2----|

Chorus                                                                
G-------------------------------------------------------------------------|
D-------------------------------------------------------------------------|
A-5-5-5-5-5-5-5-5-----------------5-5-5-5-5-5-5-5-----------------5-5-5-5-|
E-----------------2-2-2-2-2-2-2-2-----------------2-2-2-2-0-0-0-0---------|

G---------------------------------------------------------------------------------|
D---------------------------------------------------------------------------------|
A-5-5-5-5-5-5-5-5-----------------5-5-5-5-5-5-5-5---------7-7-7-7-5-5-5-5-5-5-5-5-|
E-----------------2-2-2-2-2-2-2-2-----------------2-2-2-2-------------------------|

Verse                  x3
G------------------------|-----------|
D----------------4---4---|-----------|
A-5-5-7-7------2---2---2-|-----------|
E---------2-2------------|-0----2----|

Solo (Chorus)                                                              
G-------------------------------------------------------------------------|
D-------------------------------------------------------------------------|
A-5-5-5-5-5-5-5-5-----------------5-5-5-5-5-5-5-5-----------------5-5-5-5-|
E-----------------2-2-2-2-2-2-2-2-----------------2-2-2-2-0-0-0-0---------|

G---------------------------------------------------------------------------------|
D---------------------------------------------------------------------------------|
A-5-5-5-5-5-5-5-5-----------------5-5-5-5-5-5-5-5---------7-7-7-7-5-5-5-5-5-5-5-5-|
E-----------------2-2-2-2-2-2-2-2-----------------2-2-2-2-------------------------|


Verse                  x3                x2
G------------------------|-----------------|-----------|
D----------------4---4---|-----------------|-----------|
A-5-5-7-7------2---2---2-|-5-5-7-7---------|-----------|
E---------2-2------------|---------2-2-2-2-|-0----2----|

****************************************************************************

4. Locket Love

Intro
G-----------------------------------------------------------------|
D-----------------------------------------------------------------|
A-7-7-7-7---------5-5-5-5-7-7-7-7-7-7-7-7---------5-5-5-5-7-7-7-7-|
E---------5-5-5-5-------------------------5-5-5-5-----------------|

Verse
G-----------------------------------------------------------------|
D-----------------------------------------------------------------|
A-5-5-5-5-5-5-5-5-5-5-5-5-5-5-5-5-7-7-7-7-7-7-7-7-7-7-7-7-7-7-7-7-|
E-----------------------------------------------------------------|

G-----------------------------------------------------------------|
D-----------------------------------------------------------------|
A-5-5-5-5-5-5-5-5-5-5-5-5-5-5-5-5-7-7-7-7-7-7-7-7-7-7-7-7-7-7-7-7-|
E-----------------------------------------------------------------|

Chorus
G-----------------------------------------------------------------|
D-----------------------------------------------------------------|
A---------------------------------5-5-5-5-5-5-5-5-5-5-5-5-5-5-5-5-|
E-5-5-5-5-5-5-5-5-5-5-5-5-5-5-5-5---------------------------------|

G-----------------------------------------------------------------|
D-----------------------------------------------------------------|
A---------------------------------5-5-5-5-5-5-5-5-5-5-5-5-5-5-5-5-|
E-5-5-5-5-5-5-5-5-5-5-5-5-5-5-5-5---------------------------------|

Bridge
G-----------------------------------------------------------------|
D-----------------------------------------------------------------|
A-5-5-5-5-5-5-5-5-5-5-5-5-5-5-5-5---------------------------------|
E---------------------------------5-5-5-5-5-5-5-5-5-5-5-5-5-5-5-5-|

G-----------------------------------------------------------------|
D-----------------------------------------------------------------|
A---------------------------------7-7-7-7-7-7-7-7-7-7-7-7-7-7-7-7-|
E-7-7-7-7-7-7-7-7-7-7-7-7-7-7-7-7---------------------------------|

Outro
G-----------------------------------------------------------------|
D-----------------------------------------------------------------|
A-7-7-7-7---------5-5-5-5-7-7-7-7-7-7-7-7---------5-5-5-5-7-7-7-7-|
E---------5-5-5-5-------------------------5-5-5-5-----------------|

G-----------------------------------------------------------------|
D-----------------------------------------------------------------|
A-7-7-7-7---------5-5-5-5-7-7-7-7-7-7-7-7---------5-5-5-5-7-------|
E---------5-5-5-5-------------------------5-5-5-5-----------------|

Order:

Intro 
Verse
Chours
Intro
verse
Chorus
Bridge
Intro
Verse
Chorus
Intro
Bridge
Intro
Verse
Chours
Outro

***************************************************************************

5. I Don't Care

Main Riff                    x2
G------------------------------|
D------------------------------|
A------------------------------|
E-5-5-3-5-3-5--1-1-1-1-3-3-3-3-| 

Verse                           x5
G---------------------------------|
D---------------------------------|
A---------------------------------|
E-5-5-5-5-5-5-5-5-1-1-1-1-3-3-3-3-|


Main Riff                    x2
G------------------------------|
D------------------------------|
A------------------------------|
E-5-5-3-5-3-5--1-1-1-1-3-3-3-3-|

Main Riff                    x2
G------------------------------|
D------------------------------|
A------------------------------|
E-5-5-3-5-3-5--1-1-1-1-3-3-3-3-| 

Verse                           x5
G---------------------------------|
D---------------------------------|
A---------------------------------|
E-5-5-5-5-5-5-5-5-1-1-1-1-3-3-3-3-|         

Bridge
G-----------------------------------------------------------------|
D-----------------------------------------------------------------|
A-----------------------------------------------------------------|
E-5-5-5-5-5-5-5-5-5-5-5-5-5-5-5-5-1-1-1-1-1-1-1-1-3-3-3-3-3-3-3-3-|

Main Riff                    x2
G------------------------------|
D------------------------------|
A------------------------------|
E-5-5-3-5-3-5--1-1-1-1-3-3-3-3-| 

Verse                           x5
G---------------------------------|
D---------------------------------|
A---------------------------------|
E-5-5-5-5-5-5-5-5-1-1-1-1-3-3-3-3-|

Outro                   
G------------------------------|--------------|
D------------------------------|--------------|
A------------------------------|--------------|
E-5-5-3-5-3-5--1-1-1-1-3-3-3-3-|-5-5-3-5-3-5--|

****************************************************************************

6. Sheena Is A Punk Rocker

Intro
G----------|----------|----------|----------|
D----------|----------|----------|----------|
A-2/3-3--3-|-2/3-3--3-|-2/3-3--3-|-2/3-3--3-|
E----------|----------|----------|----------|

Verse
G-----------------------------------------------------------------|
D-----------------------------------------------------------------|
A-3-3-3-3-3-3-3-3-3-3-3-3-3-3-3-3-----------------3-3-3-3-3-3-3-3-|
E---------------------------------3-3-3-3-3-3-3-3-----------------|
                                
G-----------------------------------------------------------------|
D-----------------------------------------------------------------|
A-0-0-0-0-0-0-0-0-----------------0-0-0-0-0-0-0-0-----------------|
E-----------------1-1-1-1-1-1-1-1-----------------1-1-1-1-1-1-1-1-|

G-----------------------------------------------------------------|
D-----------------------------------------------------------------|
A-3-3-3-3-3-3-3-3-3-3-3-3-3-3-3-3---------------------------------|
E---------------------------------3-3-3-3-3-3-3-3-3-3-3-3-3-3-3-3-|

G-----------------|
D-----------------|
A-----------------|
E-3-3-3-3-3-3-3-3-|

Chorus                          x7
G---------------------------------|-------------------------------|
D-----------------3-3-3-3-5-5-5-5-|-------------------------------|
A-3-3-3-3-3-3-3-3-----------------|-3-3-3-3-3-3-3-3-3-3-3-3-3-3-3-|
E---------------------------------|-------------------------------|

Bridge ("...punk punk, punk rocker...")
G-----------------------------------------------------------------|
D-----------------------------------------------------------------|
A---------------------------------3-3-3-3-3-3-3-3-3-3-3-3-3-3-3-3-|
E-1-1-1-1-1-1-1-1-1-1-1-1-1-1-1-1---------------------------------|

G-----------------------------------------------------------------|
D-----------------------------------------------------------------|
A---------------------------------1-1-1-1-1-1-1-1-1-1-1-1-1-1-1-1-|
E-3-3-3-3-3-3-3-3-3-3-3-3-3-3-3-3---------------------------------|

Intro
G----------|----------|----------|----------|
D----------|----------|----------|----------|
A-2/3-3--3-|-2/3-3--3-|-2/3-3--3-|-2/3-3--3-|
E----------|----------|----------|----------|

Verse
G-----------------------------------------------------------------|
D-----------------------------------------------------------------|
A-3-3-3-3-3-3-3-3-3-3-3-3-3-3-3-3-----------------3-3-3-3-3-3-3-3-|
E---------------------------------3-3-3-3-3-3-3-3-----------------|
                                
G-----------------------------------------------------------------|
D-----------------------------------------------------------------|
A-0-0-0-0-0-0-0-0-----------------0-0-0-0-0-0-0-0-----------------|
E-----------------1-1-1-1-1-1-1-1-----------------1-1-1-1-1-1-1-1-|

G-----------------------------------------------------------------|
D-----------------------------------------------------------------|
A-3-3-3-3-3-3-3-3-3-3-3-3-3-3-3-3---------------------------------|
E---------------------------------3-3-3-3-3-3-3-3-3-3-3-3-3-3-3-3-|

G-----------------|
D-----------------|
A-----------------|
E-3-3-3-3-3-3-3-3-|

Chorus                          x7
G---------------------------------|-------------------------------|
D-----------------3-3-3-3-5-5-5-5-|-------------------------------|
A-3-3-3-3-3-3-3-3-----------------|-3-3-3-3-3-3-3-3-3-3-3-3-3-3-3-|
E---------------------------------|-------------------------------|

Bridge ("...punk punk, punk rocker...")
G-----------------------------------------------------------------|
D-----------------------------------------------------------------|
A---------------------------------3-3-3-3-3-3-3-3-3-3-3-3-3-3-3-3-|
E-1-1-1-1-1-1-1-1-1-1-1-1-1-1-1-1---------------------------------|

G-----------------------------------------------------------------|
D-----------------------------------------------------------------|
A---------------------------------1-1-1-1-1-1-1-1-1-1-1-1-1-1-1-1-|
E-3-3-3-3-3-3-3-3-3-3-3-3-3-3-3-3---------------------------------|

Intro
G----------|----------|----------|----------|
D----------|----------|----------|----------|
A-2/3-3--3-|-2/3-3--3-|-2/3-3--3-|-2/3-3--3-|
E----------|----------|----------|----------|

Outro          repeat and fade out
G---------------------------------|
D-----------------3-3-3-3-5-5-5-5-|
A-3-3-3-3-3-3-3-3-----------------|
E---------------------------------|

****************************************************************************

7. We're A Happy Family

Whole Song 
G----------------------------------------|
D----------------------------------------|
A---7-------------7------------7---------|
E-5---7-7-7-7-7-5---7-7-7-7--5---7-7-7-7-|

G-------------------------------------------------|
D-------------------------------------------------|
A---------7-9---------5-7---------7-9---------5-7-|
E-9-9-9-9-----7-7-7-7-----9-9-9-9-----7-7-7-7-----|
                                                        x4
G---------------------------------------------------------|
D---------5-5-5-5---------7-7-7-7---------5-5-5-5---------|
A-7-7-7-7---------7-7-7-7---------7-7-7-7---------5-5-5-5-|
E---------------------------------------------------------|

That's it just repeat it 
****************************************************************************

8.Teenage Lobotomy

Chorus 
G-------------------------------------------|
D-------------------------------------------|
A-7--9-----------------7--9-----------------|
E------7-7-7-7-7-7-7-7------7-7-7-7-7-7-7-7-|

G--------------------------------------------------------|
D--------------------------------------------------------|
A-7-7-7--5------7-7-7--5-------7-7-7--5-----7-7-7--5-----|
E-----------7-------------7--------------7------------7--|

G------------------------------------|
D------------------------------------|
A-------5-5-5-5-5-5------5-5-5-5-5-5-|
E-3--5--------------3--5-------------|

Verse
G---------------------------------|
D---------------------------------|
A-----------------7-7-7-7-7-7-7-7-|
E-5-5-5-5-5-5-5-5-----------------|

****************************************************************************

9. Do You Wanna Dance?

Verse
G---------------------------------------------------------|
D---------------------------------------------------------|
A---------5-5-5-5---------5-5-5-5---------7-7-7-7---------|
E-5-5-5-5---------5-5-5-5---------5-5-5-5---------5-5-5-5-|

Chorus
G-----------------------------------------------------------------|
D-----------------------------------------------------------------|
A---------5-5-5-5---------5-5-5-5---------7-7-7-7---------7-7-7-7-|
E-5-5-5-5---------5-5-5-5---------5-5-5-5---------5-5-5-5---------|

Bridge (Build Up)
G-------------------------|
D-------------------------|
A-------------------------|
E-5-5-5-5-5-5-5-5-5-5-5-5-|

Listen for order

****************************************************************************

10. I Wanna Be Well

Intro
G---------------------------------|
D---------------------------------|
A-0-0-0-0-0-0-0-0-0-0-0-0-0-0-0-0-|
E---------------------------------|

Verse                           x3
G---------------------------------|---------------------------------|
D---------------------------------|---------------------------------|
A-5-5-5-5-5-5-5-5-----------------|-0-0-0-0-0-0-0-0-0-0-0-0-0-0-0-0-|
E-----------------3-3-3-3-5-5-5-5-|---------------------------------|
                                x3
G---------------------------------|---------------------------------|
D---------------------------------|---------------------------------|
A-5-5-5-5-5-5-5-5-----------------|-0-0-0-0-0-0-0-0-0-0-0-0-0-0-0-0-|
E-----------------3-3-3-3-5-5-5-5-|---------------------------------|

Chorus                                                          x3
G-----------------------------------------------------------------|
D-----------------------------------------------------------------|
A---------------------------------5-5-5-5-5-5-5-5-5-5-5-5-5-5-5-5-|
E-3-3-3-3-3-3-3-3-5-5-5-5-5-5-5-5---------------------------------|

G-----------------------------------------------------------------|
D-----------------------------------------------------------------|
A---------------------------------3-3-3-3-3-3-3-3-3-3-3-3-3-3-3-3-|
E-3-3-3-3-3-3-3-3-5-5-5-5-5-5-5-5---------------------------------|

Verse                           x3
G---------------------------------|---------------------------------|
D---------------------------------|---------------------------------|
A-5-5-5-5-5-5-5-5-----------------|-0-0-0-0-0-0-0-0-0-0-0-0-0-0-0-0-|
E-----------------3-3-3-3-5-5-5-5-|---------------------------------|
                                x3
G---------------------------------|---------------------------------|
D---------------------------------|---------------------------------|
A-5-5-5-5-5-5-5-5-----------------|-0-0-0-0-0-0-0-0-0-0-0-0-0-0-0-0-|
E-----------------3-3-3-3-5-5-5-5-|---------------------------------|

Chorus                                                          x3
G-----------------------------------------------------------------|
D-----------------------------------------------------------------|
A---------------------------------5-5-5-5-5-5-5-5-5-5-5-5-5-5-5-5-|
E-3-3-3-3-3-3-3-3-5-5-5-5-5-5-5-5---------------------------------|

G-----------------------------------------------------------------|
D-----------------------------------------------------------------|
A---------------------------------3-3-3-3-3-3-3-3-3-3-3-3-3-3-3-3-|
E-3-3-3-3-3-3-3-3-5-5-5-5-5-5-5-5---------------------------------|

Outro                           x6
G---------------------------------|
D---------------------------------|
A-5-5-5-5-5-5-5-5-----------------|
E-----------------3-3-3-3-5-5-5-5-|

****************************************************************************

11. I Can't Give You Anything

Main Riff      x2
G----------------|
D----------------|
A-3-3-----3------|
E-----1-1----3-3-|

Verse                                                 x3 
G---------------------------------|---------------------|
D---------------------------------|---------------------|
A---------------------------------|---------------3-----|
E-3-3-3-3-3-3-3-3-1-1-1-1-1-1-1-1-|-3-3-3-3-3-3-------3-|

Main Riff      x2
G----------------|
D----------------|
A-3-3-----3------|
E-----1-1----3-3-|

Verse                                                 x3 
G---------------------------------|---------------------|
D---------------------------------|---------------------|
A---------------------------------|---------------3-----|
E-3-3-3-3-3-3-3-3-1-1-1-1-1-1-1-1-|-3-3-3-3-3-3-------3-|

Main Riff      x2
G----------------|
D----------------|
A-3-3-----3------|
E-----1-1----3-3-|

Bridge ("You think that i'm real cute...")
G-----------------|-----------------|-----------------|-----------------|
D-----------------|-----------------|-----------------|-----------------|
A-----3-3---------|-----3-3---------|-----3-3---------|-----3-3---------|
E-1-1-----3---3-3-|-1-1-----3---3-3-|-1-1-----3---3-3-|-1-1-----3---3-3-|

Main Riff      x4
G----------------|
D----------------|
A-3-3-----3------|
E-----1-1----3-3-|

Verse                                                 x3 
G---------------------------------|---------------------|
D---------------------------------|---------------------|
A---------------------------------|---------------3-----|
E-3-3-3-3-3-3-3-3-1-1-1-1-1-1-1-1-|-3-3-3-3-3-3-------3-|

Main Riff      x2
G----------------|
D----------------|
A-3-3-----3------|
E-----1-1----3-3-|

Bridge ("You think i'm kinda real cute...")
G-----------------|-----------------|-----------------|-----------------|
D-----------------|-----------------|-----------------|-----------------|
A-----3-3---------|-----3-3---------|-----3-3---------|-----3-3---------|
E-1-1-----3---3-3-|-1-1-----3---3-3-|-1-1-----3---3-3-|-1-1-----3---3-3-|

Main Riff      x8
G----------------|
D----------------|
A-3-3-----3------|
E-----1-1----3-3-|

****************************************************************************

12.Ramona 

	Intro                        x2 
G------------------------------|
D------------------------------|
A-3--3-3-3-3-3---3-3-3-3-3-3-3-|
E--------------1---------------|

Verse
G---------------------------------|---------------------------------|
D---------------------------------|---------------------------------|
A-3-3-3-3-3-3-3-3-----------------|-3-3-3-3-3-3-3-3-----------------|
E-----------------1-1-1-1-3-3-3-3-|-----------------1-1-1-1-3-3-3-3-|

G-----------------------------------------------------------------|
D-----------------------------------------------------------------|
A-----------------3-3-3-3-3-3-3-3---------------------------------|
E-1-1-1-1-1-1-1-1-----------------1-1-1-1-1-1-1-1-3-3-3-3-3-3-3-3-|

Verse
G---------------------------------|---------------------------------|
D---------------------------------|---------------------------------|
A-3-3-3-3-3-3-3-3-----------------|-3-3-3-3-3-3-3-3-----------------|
E-----------------1-1-1-1-3-3-3-3-|-----------------1-1-1-1-3-3-3-3-|

G-----------------------------------------------------------------|
D-----------------------------------------------------------------|
A-----------------3-3-3-3-3-3-3-3---------------------------------|
E-1-1-1-1-1-1-1-1-----------------1-1-1-1-1-1-1-1-3-3-3-3-3-3-3-3-|

Chorus                          x3
G---------------------------------|---------------------------------|
D---------------------------------|---------------------------------|
A-1-1-1-1-1-1-1-1-----------------|-1-1-1-1-1-1-1-1-3-3-3-3-3-3-3-3-|
E-----------------1-1-1-1-1-1-1-1-|---------------------------------|

Intro              
G------------------------------|
D------------------------------|
A-3--3-3-3-3-3---3-3-3-3-3-3-3-|
E--------------1---------------|

Verse
G---------------------------------|---------------------------------|
D---------------------------------|---------------------------------|
A-3-3-3-3-3-3-3-3-----------------|-3-3-3-3-3-3-3-3-----------------|
E-----------------1-1-1-1-3-3-3-3-|-----------------1-1-1-1-3-3-3-3-|

G-----------------------------------------------------------------|
D-----------------------------------------------------------------|
A-----------------3-3-3-3-3-3-3-3---------------------------------|
E-1-1-1-1-1-1-1-1-----------------1-1-1-1-1-1-1-1-3-3-3-3-3-3-3-3-|

Chorus                          x3
G---------------------------------|---------------------------------|
D---------------------------------|---------------------------------|
A-1-1-1-1-1-1-1-1-----------------|-1-1-1-1-1-1-1-1-3-3-3-3-3-3-3-3-|
E-----------------1-1-1-1-1-1-1-1-|---------------------------------|

Outro                        x2
G------------------------------|
D------------------------------|
A-3--3-3-3-3-3---3-3-3-3-3-3-3-|
E--------------1---------------|

****************************************************************************

13. Surfin' Bird

Verse (Play forever)
G-------------------------------|
D-------------------------------|
A-------------------------------|
E-5-5-5-5-5-5-5-5-5-5-5-5-5-5-5-| 


Chorus
"Well dont you know about the bird"
G----------------------------------|
D----------------------------------|
A-7-7-7-7-7-7-7-7--5-5-5-5-5-5-5-5-|
E----------------------------------|

****************************************************************************

14. Why Is It Always This Way?
Why Is It Always This Way?

Main Riff       x8 
G-----------------|
D---------4-4-4-4-|
A-2-2-4-4---------|
E-----------------|

Bridge
G---------------------------------------------------------|
D-2-2-2-2-2-2-2-2-4-4-4-4-----2-2-2-2-2-2-2-2-------------|
A-------------------------2-0-----------------4-4-4-4-4-4-|
E---------------------------------------------------------|

G---------------------------------------------------|
D---------------------------------------------------|
A---------------------------------------------------|
E-4/5-5-5-4/5-5-5-4/5-5-5-4/5-5-5-5-7-7-7-7-7-7-7-7-|

G---------------------------------------------------|
D---------------------------------------------------|
A---------------------------------------------------|
E-4/5-5-5-4/5-5-5-4/5-5-5-4/5-5-5-5-7-7-7-7-9-9-9-9-|

Main Riff       x8 
G-----------------|
D---------4-4-4-4-|
A-2-2-4-4---------|
E-----------------|

Bridge
G---------------------------------------------------------|-----------------|
D-2-2-2-2-2-2-2-2-4-4-4-4-----2-2-2-2-2-2-2-2-------------|-----------------|
A-------------------------2-0-----------------4-4-4-4-4-4-|-2-2-2-2-2-2-2-2-|
E---------------------------------------------------------|-----------------|

G---------------------------------------------------|
D---------------------------------------------------|
A---------------------------------------------------|
E-4/5-5-5-4/5-5-5-4/5-5-5-4/5-5-5-5-7-7-7-7-7-7-7-7-|

G---------------------------------------------------|
D---------------------------------------------------|
A---------------------------------------------------|
E-4/5-5-5-4/5-5-5-4/5-5-5-4/5-5-5-5-7-7-7-7-9-9-9-9-|

Main Riff       x8 
G-----------------|
D---------4-4-4-4-|
A-2-2-4-4---------|
E-----------------|
comments
We did not receive enough feedback on this tab! Please rate:
print report bad tab
1 2 3 4 5
I want to post or [tab]
guest
You may want to rate the tab now too:
select rating
Please do not post tabs as comments. Select "correction" instead!