Oops, an error
Loading. Please wait.

Subterranean Jungle Bass Tab

2,115 views 3 this week
1 commentread comment
1 2 3 4 5
excellent!
x 1
Autoscroll
+/-
esc
set tempo
stop
Contributor
Hey! There's an official Ultimate Guitar app which is ideal
for learning songs when you're away from computer. Get the app
WARNING: You are trying to view
                                    content from Ultimate-Guitar.com
                                    in an unauthorized application,
                                    which is prohibited.

                                    Please use an official Ultimate
                                    Guitar Tabs application for iPhone,
                                    iPad or Android to access legitimate
                                    chords, guitar, bass, and drum tabs
                                    from Ultimate-Guitar.com database.

                                    Type "ultimate guitar tabs" in Apple
                                    App Store's or Android Market's
                                    search to find the application.
1.Little Bit O'soul

Main Riff
G---------------------|
D---------------------|
A------2-3--5-5-------|
E--3-3----------2-3---|

Variant Riff
G--------------------------------|
D--------------------------------|
A-----2-3-3-3-3--5-5-------------|
E-3-3----------------2-3-3-3-3---|

Chorus                       x3
G------------------------------|---------------------|
D------------------------------|---------------------|
A-5-5-5---------------5-5-5-5--|-5-5-5-5-5-5-5-5-5-5-|
E-------4-4-4-4-5-5-5----------|---------------------|


Order:

Main Riff x6
Variant   x3
Main Riff x6
Variant   x4
Chorus    x3
Main Riff x6
Variant   x4
Chorus    x3
Main Riff x4
Variant   x10 (Fade Out)
****************************************************************************

2.I Need Your Love

Intro                           x3
G---------------------------------|---------------------------------|
D-3-3-3-3-3-3-3-3-0-0-0-0-0-0-0-0-|---------------------------------|
A---------------------------------|-2/3-3-3-2/3-3-3-2/3-3-3-3-3-3-3-|
E---------------------------------|---------------------------------|

Verse                           x3
G---------------------------------|---------------------------------|
D---------------------------------|---------------------------------|
A---------------------------------|-2/3-3-3-2/3-3-3-2/3-3-3-3-3-3-3-|
E-1-1-1-1-1-1-1-1-3-3-3-3-3-3-3-3-|---------------------------------|

Solo
G-----------------------------------------------------------------|
D-----------------------------------------------------------------|
A---------------------------------1-1-1-1-1-1-1-1-3-3-3-3-3-3-3-3-|
E-1-1-1-1-1-1-1-1-3-3-3-3-3-3-3-3---------------------------------|

Now depending on what you prefer you can play the verse or intro as the chorus. The is 
the octive up which i think sounds better to play because of the back up vocals

Chorus   (Intro)                x3
G---------------------------------|---------------------------------|
D-3-3-3-3-3-3-3-3-0-0-0-0-0-0-0-0-|---------------------------------|
A---------------------------------|-2/3-3-3-2/3-3-3-2/3-3-3-3-3-3-3-|
E---------------------------------|---------------------------------|

Chorus (Verse)                  x3
G---------------------------------|---------------------------------|
D---------------------------------|---------------------------------|
A---------------------------------|-2/3-3-3-2/3-3-3-2/3-3-3-3-3-3-3-|
E-1-1-1-1-1-1-1-1-3-3-3-3-3-3-3-3-|---------------------------------|


Listen for Order
****************************************************************************

3.Outsider

Verse
G-----------------------------------|
D-----------------------------------|
A-----------------------------------|
E-5-5-5-5-5-5-5-5-5-3-3-3-3-3-3-3-3-|

Post-Verse/Chorus
G------------------------|
D------------------------|
A------------------------|
E-5-5-5-5-5-5-5-5--3--3--|

Chorus
G---------------------------------|
D---------------------------------|
A---------------------------------|
E-3-3-3-3-3-3-3-3-5-5-5-5-5-5-5-5-|

Bridge                           x4
G----------------------------------|-----------------|
D-4-4-4-4--------------------------|-----------------|
A----------4-4-4-4-2-2-2-2-2-2-2-2-|-----------------|
E----------------------------------|-2-2-2-2-2-2-2-2-|

Order

Verse
Post-Verse/Chorus x2
Verse
Chorus
Post-Verse/Chorus x4
Bridge
Chorus
Verse
Post-Verse/Chorus x3
****************************************************************************

4.What'd Ya Do?

Intro                   x2
G-------------------------|
D-------------------------|
A-0-0-----7-7-7-7-7-7-7-7-|
E-----3-3-----------------|

Verse                   x3
G-------------------------|---------------------------------------|
D-------------------------|---------------------------------------|
A-0-0-----7-7-7-7-7-7-7-7-|---------7-7-7-7---------7-7-7-7-7-7-7-|
E-----3-3-----------------|-1-1-1-1---------1-1-1-1---------------|

                             x4
G-----------------------------|---------------------------------------|
D-----------------------------|---------------------------------------|
A-0-0-----6/7-7-7-7-6/7-7-7-7-|---------7-7-7-7---------7-7-7-7-7-7-7-|
E-----3-3---------------------|-1-1-1-1---------1-1-1-1---------------|

Verse 2            x3
G--------------------|-------------------------|
D--------------------|-------------------------|
A-0-0-----0--0-0-----|-0-0---------------------|
E-----3-3--------3-3-|-----3-3-1-1-1-1-1-1-1-1-|

                   x3
G--------------------|-------------------------|
D--------------------|-------------------------|
A-0-0-----0--0-0-----|-0-0---------------------|
E-----3-3--------3-3-|-----3-3-1-1-1-1-1-1-1-1-|

Solo              x8
G-------------------|-----------------------------------------|
D-------------------|-----------------------------------------|
A-0-0------0-0------|---------7-7-7-7---------7-7-7-7-7-7-7-7-|
E------3-3------3-3-|-1-1-1-1---------1-1-1-1-----------------|

                 x4
G------------------|-----------------|
D------------------|-----------------|
A-0-0-----0-0------|-7-7-7-7-7-7-7-7-|
E-----3-3------3-3-|-----------------|

Verse                   x3
G-------------------------|---------------------------------------|
D-------------------------|---------------------------------------|
A-0-0-----7-7-7-7-7-7-7-7-|---------7-7-7-7---------7-7-7-7-7-7-7-|
E-----3-3-----------------|-1-1-1-1---------1-1-1-1---------------|

G-----------------------------|
D-----------------------------|
A-0-0-----6/7-7-7-7-6/7-7-7-7-|
E-----3-3---------------------|
****************************************************************************

5.Highest Trails Above

Main
G-------------------------------------------------------|
D-------------------------------------------------------|
A-7-7-7-7-7-7-------------------------------0-0-0-0-0-0-|
E-------------7--5--5-5-5-5-5--3--3-3-3-3-3-------------|

G-------------------------------------------------------|
D-------------------------------------------------------|
A-5-5-5-5-5-5-------------------------------------------|
E-------------5--3--3-3-3-3-3--1--1-1-1-1-1-3-3-3-3-3-3-|

Bridge         x3                                                    x2
G----------------|---------------------------------|-------------------|
D----------------|---------------------------------|-------------------|
A----------------|-0-0-0-0-------------------------|-7-7-7-7-----------|
E-1-1--0-1-0-1-0-|---------3-3-1-1-3-3-3-3-3-3-3-3-|-----------3---5---|

Verse
G-------------------|----------------|-------------------|-----------------|
D-------------------|----------------|-------------------|-----------------|
A-------------------|-3-3------------|-------------------|-3-3-------------|
E-3/5-5--5-3/5-5--5-|----3-3-5-5-5-5-|-3/5-5--5-3/5-5--5-|-----3-3-5-5-5-5-|

G----------------------------|----------------|-------------------|
D----------------------------|----------------|-------------------|
A-3/5-5--5-3/5-5--5-3/5--5-5-|-3-3------------|-------------------|
E----------------------------|----3-3-5-5-5-5-|-3/5-5--5-3/5-5--5-|

G-----------------|
D-----------------|
A-3-3-------------|
E-----3-3-5-5-5-5-|

Main
G-------------------------------------------------------|
D-------------------------------------------------------|
A-7-7-7-7-7-7-------------------------------0-0-0-0-0-0-|
E-------------7--5--5-5-5-5-5--3--3-3-3-3-3-------------|

G-------------------------------------------------------|
D-------------------------------------------------------|
A-5-5-5-5-5-5-------------------------------------------|
E-------------5--3--3-3-3-3-3--1--1-1-1-1-1-3-3-3-3-3-3-|

Verse
G-------------------|----------------|-------------------|-----------------|
D-------------------|----------------|-------------------|-----------------|
A-------------------|-3-3------------|-------------------|-3-3-------------|
E-3/5-5--5-3/5-5--5-|----3-3-5-5-5-5-|-3/5-5--5-3/5-5--5-|-----3-3-5-5-5-5-|

G----------------------------|----------------|-------------------|
D----------------------------|----------------|-------------------|
A-3/5-5--5-3/5-5--5-3/5--5-5-|-3-3------------|-------------------|
E----------------------------|----3-3-5-5-5-5-|-3/5-5--5-3/5-5--5-|

G-----------------|
D-----------------|
A-3-3-------------|
E-----3-3-5-5-5-5-|

Main
G-------------------------------------------------------|
D-------------------------------------------------------|
A-7-7-7-7-7-7-------------------------------0-0-0-0-0-0-|
E-------------7--5--5-5-5-5-5--3--3-3-3-3-3-------------|

G-------------------------------------------------------|
D-------------------------------------------------------|
A-5-5-5-5-5-5-------------------------------------------|
E-------------5--3--3-3-3-3-3--1--1-1-1-1-1-3-3-3-3-3-3-|

Bridge         x3                                                    x2
G----------------|---------------------------------|-------------------|
D----------------|---------------------------------|-------------------|
A----------------|-0-0-0-0-------------------------|-7-7-7-7-----------|
E-1-1--0-1-0-1-0-|---------3-3-1-1-3-3-3-3-3-3-3-3-|-----------3---5---|

Verse
G-------------------|----------------|-------------------|-----------------|
D-------------------|----------------|-------------------|-----------------|
A-------------------|-3-3------------|-------------------|-3-3-------------|
E-3/5-5--5-3/5-5--5-|----3-3-5-5-5-5-|-3/5-5--5-3/5-5--5-|-----3-3-5-5-5-5-|

G----------------------------|----------------|-------------------|
D----------------------------|----------------|-------------------|
A-3/5-5--5-3/5-5--5-3/5--5-5-|-3-3------------|-------------------|
E----------------------------|----3-3-5-5-5-5-|-3/5-5--5-3/5-5--5-|

G-----------------|
D-----------------|
A-3-3-------------|
E-----3-3-5-5-5-5-|

Main
G-------------------------------------------------------|
D-------------------------------------------------------|
A-7-7-7-7-7-7-------------------------------0-0-0-0-0-0-|
E-------------7--5--5-5-5-5-5--3--3-3-3-3-3-------------|

G-------------------------------------------------------|
D-------------------------------------------------------|
A-5-5-5-5-5-5-------------------------------------------|
E-------------5--3--3-3-3-3-3--1--1-1-1-1-1-3-3-3-3-3-3-|
****************************************************************************

6.Somebody Like Me

Intro                           x4
G---------------------------------|
D---------------------------------|
A-----------------5*------7*------|
E-5-5-5-5-5-5-5-5-----------------|

Verse 1                         x4
G---------------------------------|
D---------------------------------|
A-----------------5-5-5-5-7-7-7-7-|
E-5-5-5-5-5-5-5-5-----------------|

Chorus                          x3
G---------------------------------|
D---------------------------------|
A-5-5-5-5-5-5-5-5-2-2-2-2-2-2-2-2-|
E---------------------------------|

"Get my kicks and live my life..."
G-----------------------------------------------------------------|
D-----------------------------------------------------------------|
A-----------------5-5-5-5-5-5-5-5-7-7-7-7-7-7-7-7-7-7-7-7-7-7-7-7-|
E-5-5-5-5-5-5-5-5-------------------------------------------------|

Verse 2                         x4
G---------------------------------|
D---------------------------------|
A-----------------5-5-5-5-7-7-7-7-|
E-5-5-5-5-5-5-5-5-----------------|

Chorus                          x3
G---------------------------------|
D---------------------------------|
A-5-5-5-5-5-5-5-5-2-2-2-2-2-2-2-2-|
E---------------------------------|

"Get my kicks and live my life..."
G-----------------------------------------------------------------|
D-----------------------------------------------------------------|
A-----------------5-5-5-5-5-5-5-5-7-7-7-7-7-7-7-7-7-7-7-7-7-7-7-7-|
E-5-5-5-5-5-5-5-5-------------------------------------------------|

Solo                            x4
G---------------------------------|
D---------------------------------|
A-----------------5-5-5-5-7-7-7-7-|
E-5-5-5-5-5-5-5-5-----------------|

Verse 3                         x3
G---------------------------------|
D---------------------------------|
A-5-5-5-5-5-5-5-5-2-2-2-2-2-2-2-2-|
E---------------------------------|

G-----------------------------------------------------------------|
D-----------------------------------------------------------------|
A-----------------5-5-5-5-5-5-5-5-7-7-7-7-7-7-7-7-7-7-7-7-7-7-7-7-|
E-5-5-5-5-5-5-5-5-------------------------------------------------|

Chorus                          x3
G---------------------------------|
D---------------------------------|
A-5-5-5-5-5-5-5-5-2-2-2-2-2-2-2-2-|
E---------------------------------|

"Get my kicks and live my life..."
G-----------------------------------------------------------------|
D-----------------------------------------------------------------|
A-----------------5-5-5-5-5-5-5-5-7-7-7-7-7-7-7-7-7-7-7-7-7-7-7-7-|
E-5-5-5-5-5-5-5-5-------------------------------------------------|

Chorus                          x3
G---------------------------------|
D---------------------------------|
A-5-5-5-5-5-5-5-5-2-2-2-2-2-2-2-2-|
E---------------------------------|

"Get my kicks and live my life..."
G-----------------------------------------------------------------|
D-----------------------------------------------------------------|
A-----------------5-5-5-5-5-5-5-5-7-7-7-7-7-7-7-7-7-7-7-7-7-7-7-7-|
E-5-5-5-5-5-5-5-5-------------------------------------------------|
****************************************************************************

7.Psycho Therapy

Part 1:
G----------------------------------------------------------------------|
D----------------------------------------------------------------------|
A------------2-4-4-4-4-4-4-4-------------2-4-4-4-4-4-4-4---------------|
E-4-4-4-4-4-------------------4-4-4-4-4--------------------------------|

G----------------------------------------------------------------------|
D----------------------------------------------------------------------|
A--4-4-4-4-4-7-9-9-9-9-9-9-9--4-4-4-4-4-7-9-9-9-9-9-9-9----------------|
E----------------------------------------------------------------------|

Part 2:
    "psycho therapy      psycho therapy       psycho therapy, thats..."
G----------------------------------------------------------------------|
D----------------------------------------------------------------------|
A----------------------------------------------------------------------|
E---9--9--9--9--9--9--9--9--9--9--9--9--9--9--9--9--9--9---------------|

G-----------------|
D-----------------|
A-9-9--9-9--------|
E------------9-7--|

Join:
G---------------------------------|
D---------------------------------|
A---------------------------------|
E-7-7-7-7--7-7-7--7-7-7-7--7-7-7--|

Bridge:
G----------------------------------------------------------------------|
D----------------------------------------------------------------------|
A---------------3-/-4-4-4-4-4-----------------3-/-4-4-4-4-4------------|
E-1-/-2-2-2-2-2-----------------1-/-2-2-2-2-2--------------------------|

Part 3:
G----------------------------------------------------------------------|
D----------------------------------------------------------------------|
A-----------------8-/-9-9-9-9-9-----------------8-/-9-9-9-9-9----------|
E--6-/-7-7-7-7-7-----------------6-/-7-7-7-7-7-------------------------|

Part 4:
   "psy...........cho               thera..........py...."
G---------------|----------------|---------------|----------------------|
D---------------|----------------|---------------|----------------------|
A-5-5-5-5-5-5-5-|-7-7-7-7-7-7-7--|-5-5-5-5-5-5-5-|-7-7-7-7-7-7-7--------|
E---------------|----------------|---------------|----------------------|

Part 5:
    "psy_cho therapy        psy_cho therapy        psy_cho therapy..."
G------|------------------|---|------------------|---|------------------|
D------|------------------|---|------------------|---|------------------|
A------|------------------|---|------------------|---|------------------|
E---8--|--9--9--9--9--9---|-8-|--9--9--9--9--9---|-8-|--9--9--9--9--9---|

G---------------|
D---------------|
A--9-9-9-9------|
E----------9-7--|

"psy_cho therapy        psy_cho therapy        psy_cho therapy..."
G------|------------------|---|------------------|---|------------------|
D------|------------------|---|------------------|---|------------------|
A------|------------------|---|------------------|---|------------------|
E---8--|--9--9--9--9--9---|-8-|--9--9--9--9--9---|-8-|--9--9--9--9--9---|

G---------------|
D---------------|
A--9-9-9-9------|
E----------9-7--|

"psy_cho therapy        psy_cho therapy        psy_cho therapy..."
G------|------------------|---|------------------|---|------------------|
D------|------------------|---|------------------|---|------------------|
A------|------------------|---|------------------|---|------------------|
E---8--|--9--9--9--9--9---|-8-|--9--9--9--9--9---|-8-|--9--9--9--9--9---|

G---------------|
D---------------|
A--9-9-9-9------|
E----------9-7--|

"psy_cho therapy        psy_cho therapy        psy_cho therapy..."
G------|------------------|---|------------------|---|------------------|
D------|------------------|---|------------------|---|------------------|
A------|------------------|---|------------------|---|------------------|
E---8--|--9--9--9--9--9---|-8-|--9--9--9--9--9---|-8-|--9--9--9--9--9---|

G----------------|
D----------------|
A--9-9-9-9-------|
E----------9-7-9-|

ORDER:

PART 1
PART 2
JOIN
PART 3 (x2)
BRIDGE
PART 3 (x2)
PART 4 (x2)
PART 1
PART 2
PART 3 (x2)
BRIDGE
PART 3 (x2)
PART 4
PART 1
PART 5

****************************************************************************
8.Time Has Come Today

Intro
G---------------------------------|
D---------------------------------|
A-5-------3---------------5-------|
E-----------------3---------------|

G---------------------------------|
D---------------------------------|
A-5-------3---------------5-5-5-5-|
E-----------------3---------------|

Main Riff                       x6
G---------------------------------|
D---------------------------------|
A-5-5-5-5-3-3-3-3---------5-5-5-5-|
E-----------------3-3-3-3---------|

Inerlude
G-----------------------------------------------------------------|
D-----------------------------------------------------------------|
A-5-5-5-5-5-5-5-5-3-3-3-3-3-3-3-3---------------------------------|
E---------------------------------5-5-5-5-5-5-5-5-5-5-5-5-5-5-5-5-|

Main Riff                       x8
G---------------------------------|
D---------------------------------|
A-5-5-5-5-3-3-3-3---------5-5-5-5-|
E-----------------3-3-3-3---------|

Intro
G---------------------------------|
D---------------------------------|
A-5-------3---------------5-5-5-5-|
E-----------------3---------------|

Main Riff                      x12
G---------------------------------|
D---------------------------------|
A-5-5-5-5-3-3-3-3---------5-5-5-5-|
E-----------------3-3-3-3---------|

("Time! Time! Time! " at 2:54 ) just build back into the Main Riff
G-----------------------------------------------------------------|
D-----------------------------------------------------------------|
A-5-5-5-5-5-5-5-5-5-5-5-5-5-5-5-5-5-5-5-5-5-5-5-5-5-5-5-5-5-5-5-5-|
E-----------------------------------------------------------------|

Main Riff                      x14
G---------------------------------|
D---------------------------------|
A-5-5-5-5-3-3-3-3---------5-5-5-5-|
E-----------------3-3-3-3---------|
****************************************************************************

9.My-My Kind of Girl

Intro                           x4
G---------------------------------|
D---------------------------------|
A-7-7-7-7-7-7-7-7-----------------|
E-----------------5-5-5-5-7-7-7-7-|

Verse
G---------------------------------|---------------------------------|
D---------------------------------|---------------------------------|
A-7-7-7-7-7-7-7-7-----------------|-7-7-7-7-7-7-7-7-----------------|
E-----------------5-5-5-5-7-7-7-7-|-----------------5-5-5-5-7-7-7-7-|

G---------------------------------|---------------------------------|
D---------------------------------|---------------------------------|
A-7-7-7-7-7-7-7-7-----------------|-7-7-7-7-7-7-7-7-----------------|
E-----------------5-5-5-5-7-7-7-7-|-----------------5-5-5-5-7-7-7-7-|

G---------------------------------|---------------------------------|
D---------------------------------|---------------------------------|
A-7-7-7-7-7-7-7-7-----------------|-7-7-7-7-7-7-7-7-----------------|
E-----------------5-5-5-5-7-7-7-7-|-----------------5-5-5-5-7-7-7-7-|

G---------------------------------|---------------------------------|
D---------------------------------|---------------------------------|
A-7-7-7-7-7-7-7-7-----------------|-7--7--------7-7-7-7-7-7-7-7-7-7-|
E-----------------5-5-5-5-7-7-7-7-|-------5--5----------------------|

Chorus
G-----------------------------------------------------------------|
D-----------------------------------------------------------------|
A-2-2-2-2---------2-2-2-2---------2-2-2-2---------0-0-0-0-2-2-2-2-|
E---------0-0-0-0---------0-0-0-0---------0-0-0-0-----------------|

Verse 2
G---------------------------------|---------------------------------|
D---------------------------------|---------------------------------|
A-7-7-7-7-7-7-7-7-----------------|-7-7-7-7-7-7-7-7-----------------|
E-----------------5-5-5-5-7-7-7-7-|-----------------5-5-5-5-7-7-7-7-|

G---------------------------------|---------------------------------|
D---------------------------------|---------------------------------|
A-7-7-7-7-7-7-7-7-----------------|-7-7-7-7-7-7-7-7-----------------|
E-----------------5-5-5-5-7-7-7-7-|-----------------5-5-5-5-7-7-7-7-|

G---------------------------------|---------------------------------|
D---------------------------------|---------------------------------|
A-7-7-7-7-7-7-7-7-----------------|-7-7-7-7-7-7-7-7-----------------|
E-----------------5-5-5-5-7-7-7-7-|-----------------5-5-5-5-7-7-7-7-|

G---------------------------------|---------------------------------|
D---------------------------------|---------------------------------|
A-7-7-7-7-7-7-7-7-----------------|-7-7-7-7---------7-7-7-7-7-7-7-7-|
E-----------------5-5-5-5-7-7-7-7-|---------5-5-5-5-----------------|

Chorus
G-----------------------------------------------------------------|
D-----------------------------------------------------------------|
A-2-2-2-2---------2-2-2-2---------2-2-2-2---------0-0-0-0-2-2-2-2-|
E---------0-0-0-0---------0-0-0-0---------0-0-0-0-----------------|

Bridge
G---------------------------------|---------------------------------|
D---------------------------------|---------------------------------|
A-7-7-7-7-7-7-7-7-0-0-0-0-0-0-0-0-|-7-7-7-7-7-7-7-7-0-0-0-0-0-0-0-0-|
E---------------------------------|---------------------------------|

G-----------------------------------------------------|
D-----------------------------------------------------|
A-7-7-7-7-7-7-7-7-----------------7--7---------7--7-7-|
E-----------------5-5-5-5-7-7-7-7-------5--5----------|

Verse 3/Outro
G---------------------------------|---------------------------------|
D---------------------------------|---------------------------------|
A-7-7-7-7-7-7-7-7-----------------|-7-7-7-7-7-7-7-7-----------------|
E-----------------5-5-5-5-7-7-7-7-|-----------------5-5-5-5-7-7-7-7-|

G---------------------------------|---------------------------------|
D---------------------------------|---------------------------------|
A-7-7-7-7-7-7-7-7-----------------|-7-7-7-7-7-7-7-7-----------------|
E-----------------5-5-5-5-7-7-7-7-|-----------------5-5-5-5-7-7-7-7-|

G---------------------------------|---------------------------------|
D---------------------------------|---------------------------------|
A-7-7-7-7-7-7-7-7-----------------|-7-7-7-7-7-7-7-7-----------------|
E-----------------5-5-5-5-7-7-7-7-|-----------------5-5-5-5-7-7-7-7-|

G---------------------------------|---------------------------------|
D---------------------------------|---------------------------------|
A-7-7-7-7-7-7-7-7-----------------|-7-7-7-7-7-7-7-7-----------------|
E-----------------5-5-5-5-7-7-7-7-|-----------------5-5-5-5-7-7-7-7-|

G---------------------------------|---------------------------------|
D---------------------------------|---------------------------------|
A-7-7-7-7-7-7-7-7-----------------|-7-7-7-7-7-7-7-7-----------------|
E-----------------5-5-5-5-7-7-7-7-|-----------------5-5-5-5-7-7-7-7-|

G---------------------------------|---------------------------------|
D---------------------------------|---------------------------------|
A-7-7-7-7-7-7-7-7-----------------|-7-7-7-7-7-7-7-7-----------------|
E-----------------5-5-5-5-7-7-7-7-|-----------------5-5-5-5-7-7-7-7-|
****************************************************************************

10. In The Park

Intro
G-----------------|-----------------|-----------------|
D-----------------|-----------------|-----------------|
A---------1-1-----|---------1-1-----|---------1-1-----|
E-3-3-3-3-----1-1-|-3-3-3-3-----1-1-|-3-3-3-3-----1-1-|

Verse
G-----------------------------------------------------------------|
D-----------------------------------------------------------------|
A-3-3-3-3-3-3-3-3-----------------3-3-3-3-3-3-3-3-----------------|
E-----------------5-5-5-5-5-5-5-5-----------------5-5-5-5-5-5-5-5-|

G----------------------------------|
D----------------------------------|
A----------------------------------|
E-1-1-1-1-1-1-1-1--3-3-3-3-3-3-3-3-|

G-----------------------------------------------------------------|
D-----------------------------------------------------------------|
A-3-3-3-3-3-3-3-3-----------------3-3-3-3-3-3-3-3-----------------|
E-----------------5-5-5-5-5-5-5-5-----------------5-5-5-5-5-5-5-5-|

G----------------------------------|
D----------------------------------|
A----------------------------------|
E-1-1-1-1-1-1-1-1--3-3-3-3-3-3-3-3-|

Chorus
G------------------|------------------|----------------------------------|
D------------------|------------------|---------3-3-3-3--5-5-5-5-5-5-5-5-|
A-3-3--------------|-3-3--------------|-3-3-3-3--------------------------|
E-----1-1--3-3-3-3-|-----1-1--3-3-3-3-|----------------------------------|

Verse
G-----------------------------------------------------------------|
D-----------------------------------------------------------------|
A-3-3-3-3-3-3-3-3-----------------3-3-3-3-3-3-3-3-----------------|
E-----------------5-5-5-5-5-5-5-5-----------------5-5-5-5-5-5-5-5-|

G----------------------------------|
D----------------------------------|
A----------------------------------|
E-1-1-1-1-1-1-1-1--3-3-3-3-3-3-3-3-|

G-----------------------------------------------------------------|
D-----------------------------------------------------------------|
A-3-3-3-3-3-3-3-3-----------------3-3-3-3-3-3-3-3-----------------|
E-----------------5-5-5-5-5-5-5-5-----------------5-5-5-5-5-5-5-5-|

G----------------------------------|
D----------------------------------|
A----------------------------------|
E-1-1-1-1-1-1-1-1--3-3-3-3-3-3-3-3-|

Intro
G-----------------|-----------------|-----------------|
D-----------------|-----------------|-----------------|
A---------1-1-----|---------1-1-----|---------1-1-----|
E-3-3-3-3-----1-1-|-3-3-3-3-----1-1-|-3-3-3-3-----1-1-|

Chorus
G------------------|------------------|----------------------------------|
D------------------|------------------|---------3-3-3-3--5-5-5-5-5-5-5-5-|
A-3-3--------------|-3-3--------------|-3-3-3-3--------------------------|
E-----1-1--3-3-3-3-|-----1-1--3-3-3-3-|----------------------------------|

G----------------------------------|---------------------------------------|
D---------3-3-3-3--5-5-5-5-5-5-5-5-|---------3-3-3-3-5-5-5-5-5-5-5-5-5-5-5-|
A-3-3-3-3--------------------------|-3-3-3-3-------------------------------|
E----------------------------------|---------------------------------------|

Verse
G-----------------------------------------------------------------|
D-----------------------------------------------------------------|
A-3-3-3-3-3-3-3-3-----------------3-3-3-3-3-3-3-3-----------------|
E-----------------5-5-5-5-5-5-5-5-----------------5-5-5-5-5-5-5-5-|

G----------------------------------|
D----------------------------------|
A----------------------------------|
E-1-1-1-1-1-1-1-1--3-3-3-3-3-3-3-3-|

Chorus
G------------------|------------------|----------------------------------|
D------------------|------------------|---------3-3-3-3--5-5-5-5-5-5-5-5-|
A-3-3--------------|-3-3--------------|-3-3-3-3--------------------------|
E-----1-1--3-3-3-3-|-----1-1--3-3-3-3-|----------------------------------|

G------------------|------------------|----------------------------------|
D------------------|------------------|---------3-3-3-3--5-5-5-5-5-5-5-5-|
A-3-3--------------|-3-3--------------|-3-3-3-3--------------------------|
E-----1-1--3-3-3-3-|-----1-1--3-3-3-3-|----------------------------------|

G------------------|------------------|----------------------------------|
D------------------|------------------|---------3-3-3-3--5-5-5-5-5-5-5-5-|
A-3-3--------------|-3-3--------------|-3-3-3-3--------------------------|
E-----1-1--3-3-3-3-|-----1-1--3-3-3-3-|----------------------------------|

...Fade out...
****************************************************************************

11.Time Bomb

Intro
G---------------------------------|
D---------------------------------|
A-3-3-3-3-3-3-3-3-3-3-3-3-3-3-3-3-|
E---------------------------------|

Verse                           x4
G---------------------------------|
D-----------------3-3-3-3-5-5-5-5-|
A-3-3-3-3-3-3-3-3-----------------|
E---------------------------------|

Chorus        x4
G---------------|---------------------------------|
D---------3--5--|-----------------5-5-5-5-5-5-5-5-|
A-3-3-3-3-------|-3-3-3-3-1-1-1-1-----------------|
E---------------|---------------------------------|

Verse                           x4
G---------------------------------|
D-----------------3-3-3-3-5-5-5-5-|
A-3-3-3-3-3-3-3-3-----------------|
E---------------------------------|

Chorus        x4
G---------------|---------------------------------|
D---------3--5--|-----------------5-5-5-5-5-5-5-5-|
A-3-3-3-3-------|-3-3-3-3-1-1-1-1-----------------|
E---------------|---------------------------------|

Bridge          x4                                  x4
G-----------------|-----------------|-----------------|-----------------|
D-3-3-3-3-5-5-5-5-|-5-5-5-5-5-5-5-5-|-3-3-3-3-5-5-5-5-|-5-5-5-5-5-5-5-5-|
A-----------------|-----------------|-----------------|-----------------|
E-----------------|-----------------|-----------------|-----------------|

Verse                           x4
G---------------------------------|
D-----------------3-3-3-3-5-5-5-5-|
A-3-3-3-3-3-3-3-3-----------------|
E---------------------------------|

Chorus        x8
G---------------|
D---------3--5--|
A-3-3-3-3-------|
E---------------|
****************************************************************************

12.Everytime I Eat Vegtables It Makes Me Think Of You

Intro
G-----------------------------------|
D-----------------------------------|
A-5-5-5-5-5-5-5-5-5-5-5-5-5-5-5-5-5-|
E-----------------------------------|

Verse
G----------------------------------------------------------|
D----------------------------------------------------------|
A-5-5-5-5-5-5-5-5----------------------------------5-----5-|
E-----------------3-3-3-3-3-3-3-3-3-3-3-3-3-3-3-3-----3----|

G-----------------------------------------------------------|
D-----------------------------------------------------------|
A-5-5-5-5-5-5-5-5---------------------------------5-5-5-5-5-|
E-----------------3-3-3-3-3-3-3-3-3-3-3-3-3-3-3-3-----------|

Pre-Chorus                      x2
G---------------------------------|---------------------------------|
D---------------------------------|---------------------------------|
A-----------------0-0-0-0-0-0-0-0-|-0-0-0-0-0-0-0-0-0-0-0-0-0-0-0-0-|
E-3-3-3-3-3-3-3-3-----------------|---------------------------------|

Verse
G----------------------------------------------------------|
D----------------------------------------------------------|
A-5-5-5-5-5-5-5-5----------------------------------5-----5-|
E-----------------3-3-3-3-3-3-3-3-3-3-3-3-3-3-3-3-----3----|

G-----------------------------------------------------------|
D-----------------------------------------------------------|
A-5-5-5-5-5-5-5-5---------------------------------5-5-5-5-5-|
E-----------------3-3-3-3-3-3-3-3-3-3-3-3-3-3-3-3-----------|

Pre-Chorus                      x2
G---------------------------------|---------------------------------|
D---------------------------------|---------------------------------|
A-----------------0-0-0-0-0-0-0-0-|-0-0-0-0-0-0-0-0-0-0-0-0-0-0-0-0-|
E-3-3-3-3-3-3-3-3-----------------|---------------------------------|

Chorus
G---------------------------------|---------------------------------|
D---------------------------------|---------------------------------|
A---------------------------------|---------------------------------|
E-2-2-2-2-2-2-2-2-2-2-2-2-2-2-2-2-|-3-3-3-3-3-3-3-3-3-3-3-3-3-3-3-3-|

G---------------------------------|---------------------------------|
D---------------------------------|---------------------------------|
A---------------------------------|---------------------------------|
E-2-2-2-2-2-2-2-2-2-2-2-2-2-2-2-2-|-3-3-3-3-3-3-3-3-3-3-3-3-3-3-3-3-|

G---------------------------------|---------------------------------|
D---------------------------------|---------------------------------|
A-7-7-7-7-7-7-7-7-5-5-5-5-5-5-5-5-|-7-7-7-7-7-7-7-7-7-7-7-7-7-7-7-7-|
E---------------------------------|---------------------------------|

Verse
G----------------------------------------------------------|
D----------------------------------------------------------|
A-5-5-5-5-5-5-5-5----------------------------------5-----5-|
E-----------------3-3-3-3-3-3-3-3-3-3-3-3-3-3-3-3-----3----|

G-----------------------------------------------------------|
D-----------------------------------------------------------|
A-5-5-5-5-5-5-5-5---------------------------------5-5-5-5-5-|
E-----------------3-3-3-3-3-3-3-3-3-3-3-3-3-3-3-3-----------|

Pre-Chorus                      x2
G---------------------------------|---------------------------------|
D---------------------------------|---------------------------------|
A-----------------0-0-0-0-0-0-0-0-|-0-0-0-0-0-0-0-0-0-0-0-0-0-0-0-0-|
E-3-3-3-3-3-3-3-3-----------------|---------------------------------|

Solo
G----------------------------------------------------------|
D----------------------------------------------------------|
A-5-5-5-5-5-5-5-5----------------------------------5-----5-|
E-----------------3-3-3-3-3-3-3-3-3-3-3-3-3-3-3-3-----3----|

G-----------------------------------------------------------|
D-----------------------------------------------------------|
A-5-5-5-5-5-5-5-5---------------------------------5-5-5-5-5-|
E-----------------3-3-3-3-3-3-3-3-3-3-3-3-3-3-3-3-----------|

Pre-Chorus                      x2
G---------------------------------|---------------------------------|
D---------------------------------|---------------------------------|
A-----------------0-0-0-0-0-0-0-0-|-0-0-0-0-0-0-0-0-0-0-0-0-0-0-0-0-|
E-3-3-3-3-3-3-3-3-----------------|---------------------------------|

Chorus
G---------------------------------|---------------------------------|
D---------------------------------|---------------------------------|
A---------------------------------|---------------------------------|
E-2-2-2-2-2-2-2-2-2-2-2-2-2-2-2-2-|-3-3-3-3-3-3-3-3-3-3-3-3-3-3-3-3-|

G---------------------------------|---------------------------------|
D---------------------------------|---------------------------------|
A---------------------------------|---------------------------------|
E-2-2-2-2-2-2-2-2-2-2-2-2-2-2-2-2-|-3-3-3-3-3-3-3-3-3-3-3-3-3-3-3-3-|

G---------------------------------|---------------------------------|
D---------------------------------|---------------------------------|
A-7-7-7-7-7-7-7-7-5-5-5-5-5-5-5-5-|-7-7-7-7-7-7-7-7-7-7-7-7-7-7-7-7-|
E---------------------------------|---------------------------------|

Verse
G----------------------------------------------------------|
D----------------------------------------------------------|
A-5-5-5-5-5-5-5-5----------------------------------5-----5-|
E-----------------3-3-3-3-3-3-3-3-3-3-3-3-3-3-3-3-----3----|

G-----------------------------------------------------------|
D-----------------------------------------------------------|
A-5-5-5-5-5-5-5-5---------------------------------5-5-5-5-5-|
E-----------------3-3-3-3-3-3-3-3-3-3-3-3-3-3-3-3-----------|

Pre-Chorus                      x2
G---------------------------------|---------------------------------|
D---------------------------------|---------------------------------|
A-----------------0-0-0-0-0-0-0-0-|-0-0-0-0-0-0-0-0-0-0-0-0-0-0-0-0-|
E-3-3-3-3-3-3-3-3-----------------|---------------------------------|

Solo 2
G----------------------------------------------------------|
D----------------------------------------------------------|
A-5-5-5-5-5-5-5-5----------------------------------5-----5-|
E-----------------3-3-3-3-3-3-3-3-3-3-3-3-3-3-3-3-----3----|

G-----------------------------------------------------------|
D-----------------------------------------------------------|
A-5-5-5-5-5-5-5-5---------------------------------5-5-5-5-5-|
E-----------------3-3-3-3-3-3-3-3-3-3-3-3-3-3-3-3-----------|

Pre-Chorus                      x2
G---------------------------------|---------------------------------|---|
D---------------------------------|---------------------------------|-0-|
A-----------------0-0-0-0-0-0-0-0-|-0-0-0-0-0-0-0-0-0-0-0-0-0-0-0-0-|---|
E-3-3-3-3-3-3-3-3-----------------|---------------------------------|---|
comments
We did not receive enough feedback on this tab! Please rate:
print report bad tab
1 2 3 4 5
1 comment total.
0 reply
1v0 wrote on May 8 2010, 03:02 pm

thanks, sounds great
i'm using this for guitar playing (base notes for power chords), since nobody posted this whole album's tabs for guitar :)

I want to post or [tab]
guest
You may want to rate the tab now too:
select rating
Please do not post tabs as comments. Select "correction" instead!