Oops, an error
Loading. Please wait.

And Out Come The Wolves Bass Tab

13,622 views 24 this week
no commentswrite comment
1 2 3 4 5
excellent!
x 11
Autoscroll
+/-
esc
set tempo
stop
Contributor
Hey! There's an official Ultimate Guitar app which is ideal
for learning songs when you're away from computer. Get the app
WARNING: You are trying to view
                                    content from Ultimate-Guitar.com
                                    in an unauthorized application,
                                    which is prohibited.

                                    Please use an official Ultimate
                                    Guitar Tabs application for iPhone,
                                    iPad or Android to access legitimate
                                    chords, guitar, bass, and drum tabs
                                    from Ultimate-Guitar.com database.

                                    Type "ultimate guitar tabs" in Apple
                                    App Store's or Android Market's
                                    search to find the application.
1. MAXWELL MURDER

Verse:
G I--------------------------------------------|I
D I--------------------------------------------|I
A I0-3-4-5--3---0-3-4-5--3----0-3-4-55555555---|I
E I----------3-------------3-------------------|I

G I--------------------------------------------|I
D I--2-3-4-5-4-3-2-----------------------------|I
A I3-----------------55555555-3-2-0-2---3-5-7--|I
E I-----------------------------------3--------|I


Chorus:
G I--------------------------------------------|I
D I----------------7-5-4-----4-5-7-------------|I
A I8-7-8-7-8-7-8-7-------7-5-------------------|I
E I--------------------------------------------|I

G I--------------------------------------------|I
D I----------------7-5-4-----------------------|I
A I8-7-8-7-8-7-8-7-------7-5-------------------|I
E I--------------------------8-7---------------|I

G I--------------------------------------------|I
D I----------------7-5-4-----------------------|I
A I8-7-8-7-8-7-8-7-------7-5-777---------------|I
E I--------------------------------------------|I

G I--------------------------------------------|I
D I--------------------------------------------|I
A I5555----------------------------------------|I
E I------5555--1111--5555----------------------|I


Verse:
G I--------------------------------------------|I
D I--------------------------------------------|I
A I5--3--0-3-4-5--3---0-3-4-55555555-----------|I
E I----3-----------3---------------------------|I

G I--------------------------------------------|I
D I--2-3-4-5-4-3-2-----------------------------|I
A I3-----------------55555555-3-2-0-2---3-5-7--|I
E I-----------------------------------3--------|I


Chorus:
G I--------------------------------------------|I
D I----------------7-5-4-----4-5-7-------------|I
A I8-7-8-7-8-7-8-7-------7-5-------------------|I
E I--------------------------------------------|I

G I--------------------------------------------|I
D I----------------7-5-4-----------------------|I
A I8-7-8-7-8-7-8-7-------7-5-------------------|I
E I--------------------------8-7---------------|I

G I--------------------------------------------|I
D I----------------7-5-4-----------------------|I
A I8-7-8-7-8-7-8-7-------7-5-777---------------|I
E I--------------------------------------------|I

G I--------------------------------------------|I
D I--------------------------------------------|I
A I5555----------------------------------------|I
E I------5555--1111--5555----------------------|I


Solo:

G I5555555555------------------575-------------|I
D I------------765-56753----457---75353--------|I
A I---------------8-----5555-------------------|I
E I--------------------------------------------|I

G I-----------------------------15-------------|I
D I------0-12----12-15-12-15-17----17-17-15----|I
A I53-235-----15-------------------------------|I
E I--5-----------------------------------------|I

G I--------------------------------------------|I
D I17-15-17-15---------------------------------|I
A I------------17-15-16-17---------------------|I
E I--------------------------------------------|I

G I--19---18---17---16---15---14---12-10-9-7---|I
D I0----0----0----0----0----0----0-------------|I
A I--------------------------------------------|I
E I--------------------------------------------|I


Chorus:
G I--------------------------------------------|I
D I----------------7-5-4-----4-5-7-------------|I
A I8-7-8-7-8-7-8-7-------7-5-------------------|I
E I--------------------------------------------|I

G I--------------------------------------------|I
D I----------------7-5-4-----------------------|I
A I8-7-8-7-8-7-8-7-------7-5-------------------|I
E I--------------------------8-7---------------|I

G I--------------------------------------------|I
D I----------------7-5-4-----------------------|I
A I8-7-8-7-8-7-8-7-------7-5-777---------------|I
E I--------------------------------------------|I

G I--------------------------------------------|I
D I--------------------------------------------|I
A I5555----------------------------------------|I
E I------5555--1111--5555----------------------|I


2. 11th HOUR

Verse:
G|-------------------------| |-------------------------|
D|-----------------3/5-5-5-|*|-------------------------|
A|-3-3-------1/3-3---------|*|-------0-1-3-----5-2-3-2-|
E|-----3/1-1---------------| |-1-1-1-------3-3---------|

Chorus:
G|---------------------------| |---------------------------------|
D|---------------------------|*|---------------------------------|
A|-----------0-1-3-3-3-1-0-1-|*|---------------------------------|
E|-1-1-1-1-3-----------------| |-5-5-5-5-5-5-5-5-3-3-3-3-3-3-3-3-|

Bridge:
G|---------------------------------------------------|
D|-----------3-3-2-2---------------------3-3-1-1-0-0-|
A|-3-3-3-3-3-----------------------0-1-3-------------|
E|-------------------1-1-1-1-1-1-3-------------------|


3. ROOTS RADICALS

VERSE
       I started thinkin' . . .
-------------------------------------------------------------------|
-------------------------------------------------------------------|
-0-1-2-3-3-3-3-3-1-0-----------------------------------3-3-3-3-3-3-|
---------------------3-1-1-1-1-1-0-1-0-3-3-3-3-1-1-1-1-------------|

PRE-CHORUS
With the music execution . . .
--------------------------------------------------------------------|
-----0-0-1-1-3-3----------------------------------------------------|
-1-1-----------------0-0-1-1-3-3-------------------0-0-0-1-1-2-2----|
-----------------1-1-------------2-3-3-3-2-3-3-3-2------------------|

CHORUS -- The coolest bass part of the song
Give 'em the boot, the roots, the radicals   Give em' the boot, you know I'm a radical
-----5-2-0----------------------------5-2-0------------------------|
-----------2---5--3-2--2-3-5-3-2-0----------2--5--3-2--2-3-5-3-2-0-|
-3---------------------------------3-------------------------------|
-------------------------------------------------------------------|

Give 'em the boot, the roots, the reggae on my stereo
-----5-2-0----------------------------5-2-0------------------------|
-----------2---5--3-2--2-3-5-3-2-0----------2---5-5-5-5-3-2-0------|
-3---------------------------------3---------------------------3---|
-------------------------------------------------------------------|

BRIDGE -- Another cool riff

Yeah, Yeah     Yeah, Yeah, Yeah Yeah Yeah . . .           (repeat 3 times)
-----------------------------------------------5-5-4-4-2-2-----|
------------------------------------2-2-3-3-5--------------5-5-|
-----0-0-1-1-3-3-----0-0-1-1-2-2-3-3---------------------------|
-1-1-------------1-1-------------------------------------------|


-------------------------------------------------------------------|
-------------------------------------------------------------------|
-----0-0-1-1-3-3-----0-0-1-1-3-3-------------------0-0-0-1-1-2-2-3-|
-1-1-------------1-1-------------3-3-3-3-3-3-3-3-3-----------------|


4. TIME BOMB

Intro
|-------------------------------------|
|----------------------------2--2--2--|
|-2--2--2-----------2--2--2-----------|
|----------0--0--0--------------------|
Verse:
|----------------------------|
|-----0--4--2--4--2--0-----0-|
|-2--4------------------4----|
|----------------------------|

-----------------------------|
-------0---------------------|
-2--4-----4--0-----------0h4-|
----------------0--2--4------|

----------------------------|
-----0--4--2--4--2--0-----0-|
-2--4------------------4----|
----------------------------|

---------------------------|
-------0-------------------|
-2--4-----4--0-----------2-|
----------------0--2--4----|

Chorus:
|---------------------------------------------------------------|
|-------------2--2-----2--0--0--------0--0--1--1--2--5--5--4--4-|
|-0--0--4--4--------4-----------4--4----------------------------|
|---------------------------------------------------------------|

---------------------------|
-2--2--0--0--------0--0--2-|
-------------4--4----------|
---------------------------|

Bridge:
|------------------------|      |------------------------------|
|------------------------|play  |----------2--0-----0--1--2--0-|
|------------------------|verse |-0--0--4--------4-------------|
|-0--0--0--0--0--0--0--0-|      |------------------------------|

------------------------------------------------|
----2--4--2-----2-----------2--0-----0--1--2--0-|
-4-----------4-----0--0--4--------4-------------|
------------------------------------------------|
Outro:
|---------------------------------|
|---------------------------------|
|---------------------------------|
|-0--0--0--0--0--0--0--0--5--5--5-|

Intro
Verse
Chorus
Verse
Chorus
Verse
Chorus
Bridge
Verse
Chorus
Outro

5. OLYMPIA WA

Intro/Outro:
G|-------------------------| |---------|
D|-------------------------|*|---------|
A|-3-3-3/5-5-5-5/8-8-8-8/5-|*|-3-2-0-5-|
E|-------------------------| |---------|

Verse:
G|-----------------------------------------------|
D|-----------------------------------------------|
A|-------------------2-3-3-3-3-3-3-3-3-3-3-3-3h5-|
E|-3-3-3-3-3-3-3-3-5-----------------------------|

G|---------------------------------------------| |---------------|
D|---------------------------------------------|*|---------------|
A|-----------------3h5-5-5-5-5-5-5-5-5-3-2-3-5-|*|-5-5-5-5-3-2-0-|
E|-3-3-3-3-3-3-3-5-----------------------------| |---------------|

Chorus:
G|---------------------------------------------------------------|
D|---------------------2-2-3-3-4-4-5-5-3-3-2-2-0-0---------------|
A|-3-3-2-2-0-0-2-2-5-5-----------------------------3-3-2-2-0-2-0-|
E|---------------------------------------------------------------|

G|---------------------------------------------------------------|
D|---------------------------------------------------------------|
A|-3-3-2-2-0-0-2-2-5-5-3-3-2-2-0-0-----2-2-3-3-5-5-3-3-2-2-0-2-0-|
E|---------------------------------3-3---------------------------|

G|--------------------------------------------------------------|
D|--------------------2-2-3-3-4-4-------------------------------|
A|3-3-2-2-0-0-2-2-5-5-------------5-5-3-3-2-2-0-0----2-2-3-3-5-5|
E|-----------------------------------------------3-3------------|

G|-------------------------------------------------|
D|-------------------------------------------------|
A|-3-3-3-3-3-3-3-----------------5-5-5-5-5-5-5-5-5-|
E|---------------3-3-3-3-3-3-3-3-------------------|

Bridge:
G|---------------------------------------------------------------|
D|---------------------------------------------------------------|
A|-----3-3---3-3---------1-1-1-1---3-3---3-3-------------5-5-5-5-|
E|-3-3-----3-----1-1-1-1---------3-----3-----3-3-1-1-1-1---------|


6. LOCK STEP & GONE

No bass until 0:19

INTRO [0:19]
G-----------|
D-----------|
A--0-3-4----|
E-----------|

VERSE x4 [0:20]
G-------------------------|
D--------44444444---------|
A---4444----------4444----|
E-------------------------|

CHORUS [0:32]
G----------------------|------------------------4-6-4---------|
D----------------------|-----------2---2-4-24-6-------6-4-2---|
A--4-44----------------|---2-3-4-4---4----------------------4-|
E-------0000-444-2-222-|-4------------------------------------|

G----------------------|----------------------------|
D----------------------|-------------4-44-666-4-444-|
A--4-44----------------|--2----4-44-----------------|
E-------0-00-444-2-222-|-4-4------------------------|

Verse x4 [0:44]

Chorus [0:56]

Break [1:08]

INTERLUDE (1) [1:19]                           vvv
G-----------------------------|----------------464-----------------|
D-----------------------------|-----2--2-4-5-6-----6-5-4-2---------|
A--2--4-44-2------6-----------|--44--4---------------------4-2-----|
E-4-4--------0-0----4-4--2222-|------------------------------------|
                            vvvvv       vvv
G---------------------|-----------------464--------|
D---------------------|-----44434-5-6-6-----6-4-2--|
A-4-44----------------|-4-4------------------------|
E------0-00-444-2-222-|----------------------------|


INTERLUDE (2) [1:32]     x3
G--------------------------|--------------------|
D--------------------------|--------------------|
A-------6-8-6-5--3---------|-4>-5>--------------|
E-0-00------------3-5-555--|--------------------|

Play Chorus [1:44]

Play Verse x8 [1:56]

END NOTES [2:19]
G--------------|
D--------------|
A--4*--4-------|
E--------------|


7. JUNKIE MAN

Intro
    G----------------------------------------------------------------|
    D----------------------------------------------------------------|
    A---0-3-0----------0-3-5-----5-5-4-4-2-2-0-----------------------|
    E----------------------------------------------------------------|

    Riff 1                                                  Repeat
    G----------------------------------------------------------------|
    D----------------------------------------------------------------|
    A--0-0-0-0-0-0-0-0-0-0-5-5-5-5-5-5-5-5-5-5-5---------------------|
    E----------------------------------------------------------------|

    Riff 2                                                  Repeat
    G----------------------------------------------------------------|
    D--------------------------------------7-7-7-5-5-5-7-------------|
    A--0-0-0-0-0-0-7-7-7-7-7-7-5-5-5-5-5-5---------------------------|
    E----------------------------------------------------------------|

    Riff 3         (2x)
    G-||----------------------||-------------------------------------|
    D-||*--------------------*||-------------------------------------|
    A-||*----0-2-4-5-5-4-2-0-*||---0-2-4-5-5-4-5--7-7/5-5/4-4/2------|
    E-||---2------------------||-2-----------------------------------|


8. LISTED MIA

Intro/Chorus/Bridge:
G|-----------------------------------------------------|
D|-----------------------------------------------------|
A|-------------6-6-6-6-6-6-----------------------------|
E|-7-7-7-7-7-7-------------0-0-0-0-0-0-2-2-2-2-4-2-4-2-|

Verse/Bridge:
G|---------------|
D|---------------|
A|---------7-7-7-|
E|-7-7-7-7-------|


9. RUBY SOHO

Intro:
G---------------------------------------------------------------------------|
D-5-4-2-0------------0-----0------------------------------------------------|
A------------2-0----2---22---33-2-------------------------------------------|
E -----------------3------------------2-------------------------------------|

Verse:
G---------------------------------------------------------------------------|
D--------0-2-4-5-4-2-0------------------------------------------------------|
A-3---5-------------------0-2-3-3--0-2-0-3--5-5-3-2-------------------------|
E---------------------------------------------------------------------------|

G---------------------------------------------------------------------------|
D--------------------------0-2-0-------------------0-2-3-5-4-2-0------------|
A-0-3-0-3----5-3-2-0----2-----------3-3-0-2-0-3-5-------------------0-2-3-3-|
E----------3----------------------------------------------------------------|

Chorus:
G---------------------------------------------------------------------------|
D-----0-----0---------0-----0-------3-5-3-5---------------------------------|
A---2---22---332----2----22----3332-----------------------------------------|
E 3--------------3----------------------------------------------------------|

Bridge
G---------------------------------------------------------------------------|
D-----------------5555555---320---------------------------------------------|
A 3313--3313/5--------------------------------------------------------------|
E---------------------------------------------------------------------------|

Outro:
G---------------------------------------------------------------------------|
D-----0-----0--------- 0-----0---------3--------5---------------------------|
A---2---22---332----2----22----332------------------------------------------|
E 3---------------3---------------------------------------------------------|

Order:
Intro 1x
Verse 1x
Chorus 2x
Verse 1x
Chorus 2x
Bridge 2x
Verse 1x
Chorus 2x
No bass until chorus
Chorus 1x
Outro 1x

10. DALY CITY TRAIN

Verse/Bridge:
G|-------------------------------------------|
D|---2-0-------2-0-----3-2-3-2-3-2-3-5-5-5-5-|
A|-------2-3-------2-3-----------------------|
E|-3---------3-------------------------------|

G|-----------------------|
D|---2-5-3-5-------------|
A|-3---------5-3-2-0-2-3-|
E|-----------------------|

Chorus:
G|-----------------------------------------------------|
D|-----5-5-5-5-----5-5-5-5-----7-7-7-7-7-7-5-5-4-4-2-2-|
A|-------------3-3---------5-5-------------------------|
E|-3-3-------------------------------------------------|

Bridge:
G|-------------------------|
D|-------------------------|
A|-3-3-3-3-5-5-5-5---------|
E|-----------------3-3-3-3-|


11. JOURNEY TO THE END OF EAST BAY

Rift A
G|----------4-4--4-------6-9-6-------------|
D|--2-3-4-55--5-5-5-----7-------7-3--------|
A|-3----------------------------------1-2-3|
E|-----------------------------------1-----|

Rift B
G|---------------------------------------------------------|
D|--2-3-4-55-3-5-3-5-3-5-5-5-3-----------------------------|
A|-3-----------------------------3--1-2-3-4-5-6-7-6-5-4----|
E|---------------------------------1-----------------------|
                                       ^
                                       |_slide is easier but
                                       doesnt sound as good


Rift C
G|-------------------------------------------------|
D|--2-3-4-5-5-5-5-5-5-5-5-4-4-4-4-3-3-3-3-2-2-2-2--|
A|-3-----------------------------------------------|
E|-------------------------------------------------|

Verse
G|------------------------------------|
D|------------------------------------|
A|-33333333---------------------------|
E|---------33333333-55555555-11111111-|

Chorus
G|--------------------|
D|--------------------|
A|-----555-777-333----|
E|-333----------------|

Order

Rift A
Rift B
Rift A
Rift C
Rift A
Rift B
Rift A
Rift C
Verse 4x
Chorus 4x
Verse 4x
Chorus 4x
Rift A
Rift B
Rift A
Rift C
G|----------------------------------5-4-3-2-1-------|
D|--2-3-4-5-5-5-5-5-5-5-5-4-4-4-4-3-----------5-4-3-|
A|-3------------------------------------------------|
E|--------------------------------------------------|

Verse 4x
Chorus 4x

Outro
G|----------------------------------------|
D|----------------------------------------|
A|-33333333--------------------3----------|
E|---------333333333-555555555----1-1-----|


12. SHE'S AUTOMATIC

Verse:                          1st Ending       2nd Ending
G:-----------------------------*----------------*---------------|
D:-----------------------------*----------------*---------------|
A:3---------3------------------*-3--3-3-3-1-1-2-*3--3-3-3-1-0---|
E:---3--3-3----3--3-3-1--3--3-3*----------------*-------------3-|
Chorus:(Repeat once, but 2nd time hold first 3)
G:----------------------------------------------------------------|
D:----------------------------------------------------------------|
A:----------------------------------------------------------------|
E:1-1-1-1-1-1-1-1-1-1-1-1-1-1-1-2-3-3-3-3-3-3-3-3-3-3-3-3-5-3-5-3-|
Instrument Part and "The way she moves yeah!": (Repeat once)
G:-------------------------------------------------|
D:-------------------------------------------------|
A:3--3-3-1-0---------------1-3--3-3-1-0------0--1--|
E:-----------3-1--1-1--1-3--------------3-1--------|
Cool little bass during quiet part: (begin by sliding up)
G:-------------------5-|
D:---5-----5--3--5-----|
A:3-----3----------3---|
E:---------------------|
Ending:
A:3---------3-|
E:----1-1-1---|


13. OLD FRIEND

-intro/bridge-
G: --4---2---------------------------------------------|
D: -----------4---2---0---0---2---4---2---0------------|
A: ----------------------------------------------------|
E: ----------------------------------------------------|

G: --4--4---2------------------------------------------|
D: ---------------4---2---0---2--2--2--2---4-----------|
A: ----------------------------------------------------|
E: ----------------------------------------------------|

G: ------4---2--------------------------------------------|
D: ---------------4---2---0---0---2---4---2---0-----------|
A: --2----------------------------------------------------|
E: -------------------------------------------------------|

G: --2---0------------------------------------|
D: -----------4---0---2---0-------------------|
A: ------------------------------4---3--------|
E: -------------------------------------------|

    -chorus-
G: ------------------------------------------------------------------------------|
D: ------------------------------------------------------------------------------|
A: --0---3---2---0-----------------4-------0---2---4---5---4---2---0-------------|
E: ---------------------0---2---4-------2----------------------------------------|

    -verse-
G: ----------------------------------------------------------------|
D: -----------------2--2--2--2--4--4--4--4--0--0--0--0-------------|
A: --0--0--0--0----------------------------------------------------|
E: ----------------------------------------------------------------|

    -verse ll-
G: ------------------------------------------------------------------------|
D: ------------------------------------------------------------------------|
A: --0--0--0--0--------------------------------5--5--5--5------------------|
E: -----------------0--0--0--0--2--2--2--2---------------------------------|

    -end-
G: ----------------------------------------------------------------|
D: ------2---4---0---2---------------------------------------------|
A: --0-------------------------------------------------------------|
E: -------------------------5--------------------------------------|


INTRO X2
CHORUS X2
VERSE X4
VERSE II X4
CHORUS X2
VERSE X4
CHORUS X2
INTRO X2
PAUSE
CHORUS X2
VERSE X4
CHORUS X2
VERSE X4
END


14. DISORDER AND DISARRAY

Intro and Chorus: (Repeat 1x for intro, 3x for chorus)
G:-------------------------------|
D:-------------------------------|
A:8-8-8-8-8-8-8-8-8-6------------|
E:--------------------8-6--6-6-6-|

Verse:
G:----------------------------------|
D:----------------------------------|
A:8-8-8-8-8-8-8-8-8-----------------|
E:------------------8-8-8-8-6-6-6-6-|

"Say goodbye when you see the sign":
G:---6--8--6--------------------------------------------------|
D:------------8--6--------------------------------------------|
A:6-----------------8-----------------------7-7-7-8-8-8-10-10-|
E:--------------------6--8--8-8-8-8-8-8-8-8-------------------|


15. WARS END

Intro:
G:--------------------------------|
D:--------------------------------|
A:5-5-5-5-5-5-5-5-5-5-5-5-5-5-5-5-|
E:--------------------------------|
Verse: (Repeat 1x)
G:------------------------------------------------------------|
D:------------------------------------------------------------|
A:----------------5-5-5-5-5-5-5-5-3-3--2----------------------|
E:3-3-3-3-3-3-3-3-------------------------5--3-3--3-3-3-3-3-3-|
"WAR! Sammy the war is over!":
G:------------------------------------------------------------|
D:------------------------------------------------------------|
A:3--3-3-3-3-3-3-----------------5--5-5-5-5-5-5-5-5-5-5-5-----|
E:---------------3-3-3-3-3-3-3-3--------------------------3-3-|
"WAR! Sammy we're at the war's end":
G:--------------------------------------------------------------|
D:--------------------------------------------------------------|
A:3--3-3-3-3-3-3-----------------5--5-5-5-5-5-5-5-5-5-5-5-5-5-5-|
E:---------------3-3-3-3-3-3-3-3--------------------------------|
"WE'RE AT THE WAR'S END" etc.: (Repeat 3x)
G:--------------------|
D:--------------------|
A:----5---3-3--2------|
E:3---------------5---|
Instrumental:
G:----------------------------------------------------------|
D:-----------------------4-5-6-7--7--5-----5----------------|
A:--------------------5-----------------7-----77-6-5---3--5-|
E:5-5-5-5-5-5-5-5-3-----------------------------------------|
Instrumental:
G:--------------------------------567-345-345-------------------|
D:------------------------5-6-7-7-------------345-234-123-------|
A:-----------------3-4-5----------------------------------5-3-5-|
E:5-5-5-5-3-5-5--3----------------------------------------------|


16. YOU DON'T CARE NOTHIN'

Intro
G|-17-------------------|
D|-----17--19--15-------|
A|----------------------|
E|----------------------|

G|-------------------------------------------------------------------|
D|-------------------------------------------------------------------|
A|-3-------------0-1-2-3-------------0-1-2-3-------------------------|
E|---333-555-111---------333-555-111---------333-555-111--1-3-0>-----|

Verse
G|-------------------------------------------------------------------|
D|--------------------------------------2p0------------0-2-0---------|
A|-0--0-0-3-2-0------------0-1-2-3--3-3-----2p0------2---------------|
E|--------------3-1--1-1-1----------------------3--3-----------------|

G|-------------------------------------------------------------------|
D|--------------------------------------2-0-2-3-5--5-5-5-3-2-0-------|
A|-0--0-0-3-2-0------------0-1-2-3--3-3------------------------------|
E|--------------3-1--1-1-1-------------------------------------------|

G|-----------------------------------------------------|
D|------------------------5-5-5-5-5-3-2-0--------------|
A|-0>----3>-----0>----3>-------------------------------|
E|----1>----3>-----1>----------------------------------|

Chorus
G|----------0-2-0--------2p0-----------------------------------------|
D|--------2-------3--3-3-----2p0--------2p0--------------------------|
A|-3--3-3------------------------3--3-3-----2p0------0-1-2-5---------|
E|----------------------------------------------1--1-----------------|

G|----------0-2-0--------2p0-------------------------------|
D|--------2-------3--3-3-----2p0--------2p0----------------|
A|-3--3-3------------------------3--3-3-----2p0------0-2-0-|
E|----------------------------------------------3--3-------|

G|------------------------------------------|
D|------------------------------------------|
A|------------0-0-0-0-1-1-1-1-3-3-3-3-------|
E|3-0-1-1-1-1-------------------------------|

(Verse)

(Chorus)
Then this
G|-17----------14-15-16-17--------------------|
D|----17-19-15-------------17-19-15-----------|
A|--------------------------------------------|
E|--------------------------------------------|

G|-------------------------------------------|
D|-------------------------------------------|
A|-3-----------------------------------------|
E|---333-555-111--1-3-0>---------------------|

Verse "About me"
G|-------------------------------------------------------------------|
D|--------------------------------------2p0------------0-2-0---------|
A|-0--0-0-3-2-0------------0-1-2-3--3-3-----2p0------2---------------|
E|--------------3-1--1-1-1----------------------3--3-----------------|

G|-------------------------------------------------------------------|
D|--------------------------------------2-0-2-3-5--5-5-5-3-2-0-------|
A|-0--0-0-3-2-0------------0-1-2-3--3-3------------------------------|
E|--------------3-1--1-1-1-------------------------------------------|

(Chorus x1)
Then this x3
G|-------------------------------------------------------------------|
D|--------2p0--------------------------------------------------------|
A|-3--3-3-----2p0------0-2-0-------------0-0-0-0-1-1-1-1-3-3-3-3-----|
E|----------------3--3-------3-0-1-1-1-1-----------------------------|

End on A|-3-----|


17. AS WICKED

Intro:         * (this is also chorus and guitar solo)
G:             *
D:             *
A:0345034555   *03455      55      55         Repeat once
E:          553*     333203  333203  333203553

Verse:
G:
D:                  77754
A:55532      3555575     7Repeat until Chorus intro below
E:     533335

Chorus Intro:
G: 6 9 11 99 16 14 12 11 9
D:7
A:
E:

NA NA NA part
G:
D:
A:5555555555555             35
E:             3555555555555


18. AVENUES & ALLEYWAYS

Intro:
G:----------------------------------------------------------|
D:----------------------------------------------------------|
A:-----------3---------5--3---------------------------------|
E:-3----3---------3----------3--3-3-3-3-3-3-3-3-3-----------|OI OI OI!
Verse: (Repeat 2x)
G:----------------------------------------------------|
D:----------------------------------------------2-3-5-|
A:-------------------3-3-3-3-3-3-3-3----2-3-5-3-------|
E:-3-3-3-3-3-3-3-3-3------------------3---------------|
2nd half of verse: (Repeat 2x)
G:-----------------------|
D:---------------2--3--5-|
A:---2--3--5--3----------|
E:3----------------------|
Chorus: (Repeat once)
G:--------------------------------------------------------------|
D:--------------------------------------------------------------|
A:5-5-5-5-5-5-5-5-3-3-3-3-5-3-2---------------------2---3---4---|
E:------------------------------5-3-3-3-3-3-3-3-3-3---3---3---3-|
Part before final chorus and ending:
G:-----------|
D:-----------|
E:5----3-----|
A:---------3-|


19. THE WAY I FEEL

Intro, middle thing, and ending
G:----------------------------------------------------|
D:3---2-----------------------------------------------|
A:--------5--3--2-------------------------------0-1-2-|
E:-----------------5--2-3-3-3-2-3-3-3-2-3-3-3-3-------|
Part of intro and "NA NA NA":(23= quick slide from 2 to 3, repeat 1x)
G:--------------------------------------------------------------------|
D:-----------------------------2-3-4-5-5-5-5-45-5-5-5-5-5-3-3-2-2-----|
A:3-3-3-3-23-3-3-3-23-3-3-3-23------------------------------------5-5-|
E:--------------------------------------------------------------------|
Verse: (Play once through, 2nd time end at *)
G:---------------------*-----------------------------------------|
D:3-3-3-3-2-2-2-2-5-3-2*-----------3-3-3-3-2-2-2-2---------------|
A:---------------------*-5-3-3-3-3-------------------------------|
E:---------------------*---------------------------3-3-3-3-3-3-3-|
"You say that I'm different...":
G:-------------------------------------|
D:-------------------------------------|
A:-------------------------------0-1-2-|
E:2-3-----2-3----2--1------------------|
Slowed down part:
G:-------------------------------------------------------------------|
D:333-222-555-3-2------2--3--2-------------2-3-222-555-3-2-----------|
A:-----------------5-3-------------------------------------5-3-3-2---|
E:-------------------------------3--3-3-23-------------------------5-|
comments
print report bad tab
I want to post or [tab]
guest
You may want to rate the tab now too:
select rating
Please do not post tabs as comments. Select "correction" instead!