Oops, an error
Loading. Please wait.

Indestructible Bass Tab

ver1
ver1

Album

Whole song

More versions @911Tabs.com
4,705 views 3 this week
1 commentread comment
1 2 3 4 5
accurate
x 3
Autoscroll
+/-
esc
set tempo
stop
Contributor
Difficulty
advanced
WARNING: You are trying to view
                                    content from Ultimate-Guitar.com
                                    in an unauthorized application,
                                    which is prohibited.

                                    Please use an official Ultimate
                                    Guitar Tabs application for iPhone,
                                    iPad or Android to access legitimate
                                    chords, guitar, bass, and drum tabs
                                    from Ultimate-Guitar.com database.

                                    Type "ultimate guitar tabs" in Apple
                                    App Store's or Android Market's
                                    search to find the application.
Hello, This is The wierd guy that tabbed this, I hope you enjoy this tab it really meant 
to me, and took a LONG time to make.. Everything should be accurate, If there is 
that isnt accurate send me an Email or somthing (My E-mails at the bottom) and I will fix it

So without dragging this on too much here is the Indestructable Album Tab
____________________________________________________________________________
================================Indestructible==============================
------------------------------------Album-----------------------------------
___________________________________Bass_Tab_________________________________

1. Indestructible
2. Fall Back Down
3. Red Hot Moon
4. David Courtney
5. Start Now
6. Out of Control
7. Django
8. Arrested in Shanghai
9. Travis Bickle
10. Memphis
11. Spirit of 87'
12. Ghost Band
13. Tropical London
14. Roadblock
15. Born Frustrated
16. Back up against the WaLL
17. Ivory Coast
18. Stand Your Ground
19. Otherside

                                   Song 1
-------------------------------Indestructible-------------------------------
____________________________________________________________________________

Song Meaning- "The Human Spirit is Indestructable. Music Has Been our Savior Since Day One.
If Shaken Or Rattled The Only Solution is the Musicians and the Grooves on the Record
Provide the Message. When the RAMONES Put out "Too Tough To Die" We Thought Fu** Yea the RAMONES
are to Tough to die. Our Title Indestructable Pays Homage To That. This One Goes out to
Joey, Dee Dee, And Joe Because through Music You can Live Forever."

G|--------------------------------------------------------------------|
D|--------------------------------------------------------------4--47-|
A|-------------------------------5-55-555-----------------5-5555--5---|
E|----5-5555-5-5555-5-5555-4-4444---------2-222-2-2222-22-------------|

G|---------------------------------------------------------------|
D|---------------------------------------------------------------|
A|-----------4-4------------4-4-------------------5-55-555-554/5-|
E|-5-5555555--5-5--4-4444444-4-4-2-22-222-2-22-222---------------|

G|-----------------|
D|-----------------|
A|-7-7------7-7----|
E|-----------------|

[--------------------------------------]
[--------------------------------------]
[-5-55-555---------2-22-2/4-----------4]    Four Times
[----------5-55-555---------5-55-55-7--]

[--------------------------------------]
[--------------------------------------]
[-5-55-555---------2-22-2/4-----------4]    Four Times
[----------5-55-555---------5-55-55-7--]

G|-------------------------------------------------------------|
D|--------------------------------------------------------4-47-|
A|-----------4-4-----------4-4-------------------5-55-555--5---|
E|-5-5555555--5-5-4-4444444-4-4-2-22-222-2-22-222--------------|

G|---------------------------------------------------------------|
D|---------------------------------------------------------------|
A|-----------4-4------------4-4-------------------5-55-555-554/5-|
E|-5-5555555--5-5--4-4444444-4-4-2-22-222-2-22-222---------------|

G|------------------|
D|------------------|
A|-7-7------7-7-----|
E|------------------|

[--------------------------------------]
[--------------------------------------]
[-5-55-555---------2-22-2/4-----------4]    Four Times
[----------5-55-555---------5-55-55-7--]

[--------------------------------------]
[--------------------------------------]
[-5-55-555---------2-22-2/4-----------4]    Four Times
[----------5-55-555---------5-55-55-7--]

G|-------------------------------------------------------------|
D|--------------------------------------------------------4-47-|
A|-----------4-4-----------4-4-------------------5-55-555--5---|
E|-5-5555555--5-5-4-4444444-4-4-2-22-222-2-22-222--------------|

G|---------------------------------------------------------------|
D|---------------------------------------------------------------|
A|-----------4-4------------4-4-------------------5-55-555-554/5-|
E|-5-5555555--5-5--4-4444444-4-4-2-22-222-2-22-222---------------|

G|---------------------------------|
D|---------------------------------|
A|-7-7------7-7----7-7-----7-7-----|
E|-------------------------------5-|

                                   Song 2
--------------------------------Fall Back Down------------------------------
____________________________________________________________________________
Song Meaning- "We Have been Descarced As a pack of Badgers, Meaning if you Fu** with one of
us You Fu** with All of Us. Well This song is a Testemony To That And The Hard Times We have
all been Through Recently. More Important that anything Else the Friendship and bond
that we Share with Eachother is Pivitol Because The Only Reason Why we Are Still Here is
Because of Each other."

G|------------------------------------------------------------|
D|-----2---2---3-4-------2-----2---2---3-4--------2-------2---|
A|-2h4---4-----------0-----2h4---4-----------0--------2h4---4-|
E|------------------------------------------------------------|

G|-------------------------------------------------------------------------|
D|-2-222-22-2-2-2-222h3-4-44-4-4-44-4-2-------------------2-22-22-2-2----2-|
A|-------------------------------------4-0-00-000-0-00-000------------2h4-4|
E|-------------------------------------------------------------------------|

G|----------------------------------------------------12h3-4-44-444-2-22-22|
D|-2-22-2-2-2-2-22-2-2h3-4-44-4-4-44-4-2-----------------------------------|
A|--------------------------------------4-0-0-0-000-0----------------------|
E|-------------------------------------------------------------------------|

G|-4-44-2-22-1-11------|
D|----------------4-44-|
A|---------------------|
E|---------------------|

G|-----------------------------------------------|
D|-2-22-2h3-4-44-44----------2-22-2-2-2-22----2--|
A|------------------0-00-0-0---------------4-4-4-|
E|-----------------------------------------------|

G|----------------------------------------------|
D|-2-22-2h3-4-44-44-4----------2-22-2-2-2----2--|
A|--------------------0-00-0-0------------2h4-4-|
E|----------------------------------------------|

G|-----------------------------------------------|
D|-2-22-2h3-4-44-44----------2-22-2-2-2-22----2--|
A|------------------0-00-0-0---------------4-4-4-|
E|-----------------------------------------------|

G|----------------------------------------------|
D|-2-22-2h3-4-44-44-4----------2-22-2-2-2----2--|
A|--------------------0-00-0-0------------2h4-4-|
E|----------------------------------------------|

G|---------------------------------------2h3-4-44-44-4-3-2-4-6-4-2----|
D|--------------------2-22-2-22-222-2-22--------------------------4-2-| Play
A|-4-44-444-4-44-4-44-------------------------------------------------|Twice
E|--------------------------------------------------------------------|

G|-----------------------------------------------|
D|-2-22-2h3-4-44-44----------2-22-2-2-2-22----2--|
A|------------------0-00-0-0---------------4-4-4-|
E|-----------------------------------------------|

G|----------------------------------------------|
D|-2-22-2h3-4-44-44-4----------2-22-2-2-2----2--|
A|--------------------0-00-0-0------------2h4-4-|
E|----------------------------------------------|

G|-----------------------------------------------|
D|-2-22-2h3-4-44-44----------2-22-2-2-2-22----2--|
A|------------------0-00-0-0---------------4-4-4-|
E|-----------------------------------------------|

G|----------------------------------------------|
D|-2-22-2h3-4-44-44-4----------2-22-2-2-2----2--|
A|--------------------0-00-0-0------------2h4-4-|
E|----------------------------------------------|

G|-------------------------------------------------------------------------|
D|-2-222-22-2-2-2-222h3-4-44-4-4-44-4-2-------------------2-22-22-2-2----2-|
A|-------------------------------------4-0-00-000-0-00-000------------2h4-4|
E|-------------------------------------------------------------------------|

G|----------------------------------------------------12h3-4-44-444-2-22-22|
D|-2-22-2-2-2-2-22-2-2h3-4-44-4-4-44-4-2-----------------------------------|
A|--------------------------------------4-0-0-0-000-0----------------------|
E|-------------------------------------------------------------------------|

G|-4-44-2-22-1-11------|
D|----------------4-44-|
A|---------------------|
E|---------------------|

G|-----------------------------------------------|
D|-2-22-2h3-4-44-44----------2-22-2-2-2-22----2--|
A|------------------0-00-0-0---------------4-4-4-|
E|-----------------------------------------------|

G|----------------------------------------------|
D|-2-22-2h3-4-44-44-4----------2-22-2-2-2----2--|
A|--------------------0-00-0-0------------2h4-4-|
E|----------------------------------------------|

G|-----------------------------------------------|
D|-2-22-2h3-4-44-44----------2-22-2-2-2-22----2--|
A|------------------0-00-0-0---------------4-4-4-|
E|-----------------------------------------------|

G|----------------------------------------------|
D|-2-22-2h3-4-44-44-4----------2-22-2-2-2----2--|
A|--------------------0-00-0-0------------2h4-4-|
E|----------------------------------------------|

G|---------------------------------------2h3-4-44-44-4-3-2-4-6-4-2----|
D|--------------------2-22-2-22-222-2-22--------------------------4-2-| Play
A|-4-44-444-4-44-4-44-------------------------------------------------|Twice
E|--------------------------------------------------------------------|

G|-----------------------------------------------------------------|
D|-2-2----4-4-----------2-2------2----2-2----4-4--------2-2-----2--|
A|---------------0-0---------2h4--4----------------0-0-------2h4-4-|
E|-----------------------------------------------------------------|

G|-----------------------------------------------|
D|-2-22-2h3-4-44-44----------2-22-2-2-2-22----2--|
A|------------------0-00-0-0---------------4-4-4-|
E|-----------------------------------------------|

G|--------------------------------2-4-6-4-2-----------|
D|-2-22-2h3-4-44-44-4-------0-2-4-----------4-2-0-----|
A|--------------------0-2-4-----------------------4-2-|
E|----------------------------------------------------|

G|-----------------------------------------------|
D|-2-22-2h3-4-44-44----------2-22-2-2-2-22----2--|
A|------------------0-00-0-0---------------4-4-4-|
E|-----------------------------------------------|

G|----------------------------------------------|
D|-2-22-2h3-4-44-44-4----------2-22-2-2-2----2--|
A|--------------------0-00-0-0------------2h4-4-|
E|----------------------------------------------|

G|-----------------------------------------------|
D|-2-22-2h3-4-44-44----------2-22-2-2-2-22----2--|
A|------------------0-00-0-0---------------4-4-4-|
E|-----------------------------------------------|

G|--------------------------------2-4-6-4-2-----------|
D|-2-22-2h3-4-44-44-4-------0-2-4-----------4-2-0-----|
A|--------------------0-2-4-----------------------4-2-|
E|----------------------------------------------------|

G|-----------------------------------------------|
D|-2-22-2h3-4-44-44----------2-22-2-2-2-22----2--|
A|------------------0-00-0-0---------------4-4-4-|
E|-----------------------------------------------|

G|----------------------------------------------|
D|-2-22-2h3-4-44-44-4----------2-22-2-2-2----2--|
A|--------------------0-00-0-0------------2h4-4-|
E|----------------------------------------------|

G|-----------------------------------------------|
D|-2-22-2h3-4-44-44----------2-22-2-2-2-22----2--|
A|------------------0-00-0-0---------------4-4-4-|
E|-----------------------------------------------|

G|------------------6-4-2-4-2---------------------------------------------|
D|-2-22-2h3-4-44-44-----------4-2-4-2-----------------2-------------------|
A|------------------------------------4-2-0-------2h4---------------------|
E|------------------------------------------0-2-4-------------------------|
                                    Song 3
---------------------------------Red Hot Moon-------------------------------
____________________________________________________________________________

Song Meaning- "K.C Was Super Fu**ing Bright. She Was By far the Smartest Kid. This is
A Girl Who Never Fit in. She Never Found a Home Where She Felt She Belonged"

G|------------------------------------------------------------------|
D|---------3-2-0---55-3-2---3-2-0-----------3-2-0---55-3-2---3-2-0--|
A|-3-2-0---------3-------3--------2-3-2-0---------3--------3-------2|
E|-------3--------------------------------3-------------------------|

G|----------------------------------------------------------|
D|--------------3-33-3-5-3-------------------3-33-3-5-3-----|
A|-0-000-00-0-0-----------3h4h5-55-5-3h5-3h5------------3h5-|  Play Twice
E|----------------------------------------------------------|

G|---22-2-22--------0h2--------22-2-2--------0h2-------22-2-2-------0h2----|
D|-0---------3-33-3-----3----0--------3-33-3-----3---0--------3-33-3----3--|
A|------------------------3------------------------3----------------------3|
E|-------------------------------------------------------------------------|

G|--------------------------------|
D|--------------5-55-5-55-5-3-2-0-|
A|-5-55-3h5-3h5-------------------|
E|--------------------------------|

G|------------------------------------------------------------------|
D|---------3-2-0---55-3-2---3-2-0-----------3-2-0---55-3-2---3-2-0--|
A|-3-2-0---------3-------3--------2-3-2-0---------3--------3-------2|
E|-------3--------------------------------3-------------------------|

G|----------------------------------------------------------|
D|--------------3-33-3-5-3-------------------3-33-3-5-3-----|
A|-0-000-00-0-0-----------3h4h5-55-5-3h5-3h5------------3h5-|  Play Twice
E|----------------------------------------------------------|

G|---22-2-22--------0h2--------22-2-2--------0h2-------22-2-2-------0h2----|
D|-0---------3-33-3-----3----0--------3-33-3-----3---0--------3-33-3----3--|
A|------------------------3------------------------3----------------------3|
E|-------------------------------------------------------------------------|

G|--------------------------------|
D|--------------5-55-5-55-5-3-2-0-|
A|-5-55-3h5-3h5-------------------|
E|--------------------------------|

G|------------------------------------------------------------------|
D|---------3-2-0---55-3-2---3-2-0-----------3-2-0---55-3-2---3-2-0--|
A|-3-2-0---------3-------3--------2-3-2-0---------3--------3-------2|
E|-------3--------------------------------3-------------------------|

G|----------------------------------------------------------|
D|--------------3-33-3-5-3-------------------3-33-3-5-3-----|
A|-0-000-00-0-0-----------3h4h5-55-5-3h5-3h5------------3h5-|  Play Twice
E|----------------------------------------------------------|

G|---22-2-22--------0h2--------22-2-2--------0h2-------22-2-2-------0h2----|
D|-0---------3-33-3-----3----0--------3-33-3-----3---0--------3-33-3----3--|
A|------------------------3------------------------3----------------------3|
E|-------------------------------------------------------------------------|

G|--------------------------------|
D|--------------5-55-5-55-5-3-2-0-|
A|-5-55-3h5-3h5-------------------|
E|--------------------------------|

G|------------------------------------------------------------------------|
D|------------3-33-2h3-2h3-5-55-3h5-3h5-3-33-320------2------3-33-2h3-2h3-|
A|-3-333-33-3------------------------------------3-33---3-20--------------|
E|------------------------------------------------------------------------|

G|-------------------|
D|--------020--------|
A|-----023---320---3-|
E|-0123---------320--|

   2:42
G|-5-4-2------------------------------------------------|
D|-------5-4-2------------------320-------5-5-5----532--|
A|-------------5-4-3-333-3-3-------3---------5--------3-|
E|----------------------------------------------3-------|

G|-----------------------------0---------------------------------------|
D|----------------5-55------202-20-------------------------------------|
A|-3-3-3--------------5-------------3-33-3-----------------------------|
E|----3-3--3012---------3---------------3--3-012-3-33-0-1-2-3-33-0-123-|

G|-----------------------------------------|
D|--------0-320---5-55-3-33-5-8-7-5-3-2-0--|
A|-3-33-3------3--------------------------3|
E|-----3-----------------------------------|

G|---------------------------------------|
D|---------------320-------5-5-5----532--|
A|-3-333-3-3--------3---------5--------3-|
E|-------------------------------3-------|

G|-----------------------------0---------------------------------------|
D|----------------5-55------202-20-------------------------------------|
A|-3-3-3--------------5-------------3-33-3-----------------------------|
E|----3-3--3012---------3---------------3--3-012-3-33-0-1-2-3-33-0-123-|

G|-----------------------------------------|
D|--------0-320---5-55-3-33-5-8-7-5-3-2-0--|
A|-3-33-3------3--------------------------3|
E|-----3-----------------------------------|


(Get ready for David Courtney it comes in fast)

                                  Song 4
------------------------------David Courtney--------------------------------
____________________________________________________________________________

Song Meaning- "The Robin Hood of London England. Someone We met along our Travels and a true
punk rocker at Heart."

G|---------------------------------------------------------------|
D|---------------------------------------------------------------|
A|-5-3-2-0---0-2-3-5-3-2-0---0-1-2---0-2-3-5-4-5-7-5-4-2-0-2-4-5-|
E|---------3---------------3-------3-----------------------------|

G|------------------------------------------------------------------------|
D|------------------------------------------------------------------------|
A|-5-555-5-5-5-------------5-555-5-5-5-------------------------5-555-5-5-5|
E|-------------5-555-5-5-5-------------3-333-3-3-3-3-333-3-3-3------------|

G|----------------------------|
D|-------------7-7777-7-7-7-7-|
A|-7-777-7-7-7----------------|
E|----------------------------|

G|------------------------------------------------------------------------|
D|------------------------------------------------------------------------|
A|-5-555-5-5-5-------------5-555-5-5-5-------------------------5-555-5-5-5|
E|-------------5-555-5-5-5-------------3-333-3-3-3-3-333-3-3-3------------|

G|----------------------------|
D|-------------7-7777-7-7-7-7-|
A|-7-777-7-7-7----------------|
E|----------------------------|

G|-----------------------------------------------77-99-11-99-77------------|
D|--------------------------------------55-77-99----------------99-77------|
A|---5-4-5---5-4-5---5-4-5---5-4-5-55-77------------------------------77-55|
E|-3-------3-------3-------3-----------------------------------------------|

G|-----------------------------------------------------------------|
D|--------------------------------4-3-4-3-4-3-4-3-4-3-2-0----------|
A|---5-4-5---5-4-5---5-4-5--5-4-5-------------------------3-2-0----|
E|-3-------3-------3------3-------------------------------------3-0|

G|---------------------------------------------------------------|
D|---------------------------------------------------------------|
A|-5-3-2-0---0-2-3-5-3-2-0---0-1-2---0-2-3-5-4-5-7-5-4-2-0-2-4-5-|  X2
E|---------3---------------3-------3-----------------------------|

G|------------------------------------------------------------------------|
D|------------------------------------------------------------------------|
A|-5-555-5-5-5-------------5-555-5-5-5-------------------------5-555-5-5-5|
E|-------------5-555-5-5-5-------------3-333-3-3-3-3-333-3-3-3------------|

G|----------------------------|
D|-------------7-7777-7-7-7-7-|
A|-7-777-7-7-7----------------|
E|----------------------------|

G|------------------------------------------------------------------------|
D|------------------------------------------------------------------------|
A|-5-555-5-5-5-------------5-555-5-5-5-------------------------5-555-5-5-5|
E|-------------5-555-5-5-5-------------3-333-3-3-3-3-333-3-3-3------------|

G|----------------------------|
D|-------------7-7777-7-7-7-7-|
A|-7-777-7-7-7----------------|
E|----------------------------|


G|-----------------------------------------------77-99-11-99-77------------|
D|--------------------------------------55-77-99----------------99-77------|
A|---5-4-5---5-4-5---5-4-5---5-4-5-55-77------------------------------77-55|
E|-3-------3-------3-------3-----------------------------------------------|

G|-----------------------------------------------------------------|
D|--------------------------------4-3-4-3-4-3-4-3-4-3-2-0----------|
A|---5-4-5---5-4-5---5-4-5--5-4-5-------------------------3-2-0----|
E|-3-------3-------3------3-------------------------------------3-0|

G|---------------------------------------------------------------|
D|---------------------------------------------------------------|
A|-5-3-2-0---0-2-3-5-3-2-0---0-1-2---0-2-3-5-4-5-7-5-4-2-0-2-4-5-|  X2
E|---------3---------------3-------3-----------------------------|

G|------------------------------------------------------------------------|
D|------------------------------------------------------------------------|
A|-5-555-5-5-5-------------5-555-5-5-5-------------------------5-555-5-5-5|
E|-------------5-555-5-5-5-------------3-333-3-3-3-3-333-3-3-3------------|

G|----------------------------|
D|-------------7-7777-7-7-7-7-|
A|-7-777-7-7-7----------------|
E|----------------------------|

G|------------------------------------------------------------------------|
D|------------------------------------------------------------------------|
A|-5-555-5-5-5-------------5-555-5-5-5-------------------------5-555-5-5-5|
E|-------------5-555-5-5-5-------------3-333-3-3-3-3-333-3-3-3------------|

G|----------------------------|
D|-------------7-7777-7-7-7-7-|
A|-7-777-7-7-7----------------|
E|----------------------------|


G|--------------------------------------------------------------|
D|--------------------------9-99-99-7-777-7-7-9-999-99-7-77-7-7-|
A|--------------------------------------------------------------|  X3
E|-3-3333-3-333-3-333-3-333-------------------------------------|

G|---------------------------------------------------------------|
D|--------------------------4-444-44-4-444-44-444-4-4-444-4-2-0--|
A|--------------------------------------------------------------4|
E|-3-3333-3-333-3-333-3-333--------------------------------------|

G|--------------------------------------------------|
D|------------------------------------------------7-|
A|-5------------5-------------------5------7--------|
E|-------5-------------3------3---------------------|

G|---------------------------------------------------------------|
D|---------------------------------------------------------------|
A|-5-3-2-0---0-2-3-5-3-2-0---0-1-2---0-2-3-5-4-5-7-5-4-2-0-2-4-5-|
E|---------3---------------3-------3-----------------------------|
                                     Song 5
-----------------------------------Start Now--------------------------------
____________________________________________________________________________

Song Meaning- " This Song is About Trying to Work Shit out. Is a Passive Look at the state
of the world

G|------------|
D|------------|
A|-0-4-0------|
E|------------|

G|------------------------------------------------------------------------|
D|------------------------------------------------------------------------|
A|-4-444444----3-3-6-4-444444-----3-3-6-4-444444----3-3-6--------6-666666-|
E|---------4-44-4-------------4-44-4------------4-44-4----6-66666---------|

G|--------8~----|
D|---3~~-8~-----|
A|-4~-----------|
E|--------------|

G|-------------------------------------------|
D|----------------5-3-1-------0-0------3-3---|
A|------3-3-6--6-6------4-1-11-1-1-4-44-4-4--| X2
E|-4--4--4-----------------------------------|

G|------------------------------------------------------------------------|
D|------------------------------------------------------------------------|
A|-4-444444----3-3-6-4-444444-----3-3-6-4-444444----3-3-6--------6-666666-|
E|---------4-44-4-------------4-44-4------------4-44-4----6-66666---------|

G|------------------------------------------------------------------------|
D|------------------------------------------------------------------------|
A|-4-444444----3-3-6-4-444444-----3-3-6-4-444444----3-3-6--------6-666666-|
E|---------4-44-4-------------4-44-4------------4-44-4----6-66666---------|

G|--------8~----|
D|---3~~-8~-----|
A|-4~-----------|
E|--------------|

G|-------------------------------------------|
D|----------------5-3-1-------0-0------3-3---|
A|------3-3-6--6-6------4-1-11-1-1-4-44-4-4--| X4
E|-4--4--4-----------------------------------|

Come in after this

Humility has no play in this case,
in a big game of chess for us all,
Hostility explodes in a mess,
now you all got blood all over the wall,
And clairty turns to dark,
blindfolded prisoners of war.
And solidarity,
on the razor's edge, boy,
what? You're a big puncher now, right?"

G|---8---6-8---8---6-8----8---6-8-------6-8----8---6-8---8---6-8----8---88-|
D|-----8---------8----------8-------66-8---------8---------8---------------|
A|-6---------6---------6----------66---------6---------6----------6---6----|
E|-------------------------------------------------------------------------|

G|-8-6---------------|
D|-----8-6-----------|
A|---------8-6-------|
E|-------------8-6---|

G|-------------------------------------------|
D|----------------5-3-1-------0-0------3-3---|
A|------3-3-6--6-6------4-1-11-1-1-4-44-4-4--| Play till Next Song
E|-4--4--4-----------------------------------|
                                     Song 6
---------------------------------Out of Control-----------------------------
____________________________________________________________________________

Song Meaning- "Theres Cameras on Every Stop light as every toll booth even at the ATM in the
Super market. They Even have Cameras on Telephones."

G|----------------------|
D|----------------------|
A|-3-x3---------4-x-44--| 14 Times
E|------1-xx-4x---------|

G|----------------------|
D|----------------------|
A|-4-3-----3-2----------|
E|----------------4-3---|

G|----------------------|
D|----------------------|
A|-3-x3---------4-x-44--| X4
E|------1-xx-4x---------|

G|-------------------------|
D|-------------------------|
A|------------3-3333-33333-| X3
E|-5-444-4444--------------|

G|-----------------|
D|-----------------|
A|-----------------|
E|-4-----3----xxxx-|

G|----------------------|
D|----------------------|
A|-3-x3---------4-x-44--| X4
E|------1-xx-4x---------|

G|----------------------|
D|----------------------|
A|-3-x3---------4-x-44--| X4
E|------1-xx-4x---------|

G|----------------------|
D|----------------------|
A|-4-3-----3-2----------|
E|----------------4-3---|

G|----------------------|
D|----------------------|
A|-3-x3---------4-x-44--| X4
E|------1-xx-4x---------|

G|-------------------------|
D|-------------------------|
A|------------3-3333-33333-| X3
E|-4-444-4444--------------|

G|-----------------|
D|-----------------|
A|-----------------|
E|-4-----3----xxxx-|

G|----------------------|
D|----------------------|
A|-3-x3---------4-x-44--| X4
E|------1-xx-4x---------|
                                   Song 7
-----------------------------------Django-----------------------------------
____________________________________________________________________________

Song Meaning- "On tour RANCID loves to watch movies on our way the the next town. Our favorite
movies are Horror and Westerns. Franks Nerd Who plays "Django" would drag a coffin around and
a machine gun in it this is a fu**ed mechaphone song about a a guy who carrys his demons
with him and its not Jeff Barul."

G|------------------------------------6-|
D|-----------6-------------------6------|
A|-4----4---------4----4----4-----------|
E|--------------------------------------|

G|--------------------------------------------------------------|
D|------------------------------------------6-666-666-6-6-4-----|
A|-4-444-444-444-4-4-444-44-444-444-444-444-----------------7-6-|
E|--------------------------------------------------------------|

G|-----------------|
D|-----------------|
A|-4-444-444---2-3-|
E|-----------4-----|

G|--------------------------------------------------------------|
D|------------------------------------------6-666-666-6-6-4-----|
A|-4-444-444-444-4-4-444-44-444-444-444-444-----------------7-6-|
E|--------------------------------------------------------------|

G|-----------------|
D|-----------------|
A|-4-444-444---2-3-|
E|-----------4-----|

G|--------------------------------------------------------------------|
D|--------------------------------------------------------------------|
A|-4-444-444---2-3-4-444-444---2-3-4-444-444---2-3-4--------------2-3-|
E|-----------4---------------4---------------4-------4-444-4444-4-----|

G|----------------------------------------------------------------------|
D|----------------------------------------------------------------------|
A|-4-444-444---2-3-4-444-444---2-3-4-444-444---2-3-4--------------2-3-4-|
E|-----------4---------------4---------------4-------4-444-4444-4-------|

G|----------------------------------|
D|-3-1-0----------------------------|
A|-------3-1-0-------3--------------|  X4
E|-------------3-1-4---6-4-3-2-1-0--|

G|-------------------------------------------------------------------------|
D|-------------------------------------------66666666666666666666----------|
A|-444444444444444444444-4444444444444444444---------------------4444444444|
E|-------------------------------------------------------------------------|

G|-------------------------------------------------------------------------|
D|-------------------------------------------66666666666666666666----------|
A|-444444444444444444444-4444444444444444444---------------------4444444444|
E|-------------------------------------------------------------------------|

G|--------------------------------------------------------------|
D|------------------------------------------6-666-666-6-6-4-----|
A|-4-444-444-444-4-4-444-44-444-444-444-444-----------------7-6-|
E|--------------------------------------------------------------|

G|-------------4h5-|
D|-----------6-----|
A|-4-444-444-------|
E|-----------------|

G|--------------------------------------------------------------|
D|------------------------------------------6-666-666-6-6-6-666-|
A|-4-444-444-444-4-4-444-44-444-444-444-444---------------------|
E|--------------------------------------------------------------|

G|-6-6666-6-66-666-|
D|-----------------|
A|-----------------|
E|-----------------|

G|--------------------------------------------------------------------|
D|--------------------------------------------------------------------|
A|-4-444-444---2-3-4-444-444---2-3-4-444-444---2-3-4--------------2-3-|
E|-----------4---------------4---------------4-------4-444-4444-4-----|

G|----------------------------------------------------------------------|
D|----------------------------------------------------------------------|
A|-4-444-444---2-3-4-444-444---2-3-4-444-444---2-3-4--------------2-3-4-|
E|-----------4---------------4---------------4-------4-444-4444-4-------|

G|----------------------------------|
D|-3-1-0----------------------------|
A|-------3-1-0-------3--------------|  X4
E|-------------3-1-4---6-4-3-2-1-0--|

G|-------------------------------------------------------------------------|
D|-------------------------------------------66666666666666666666----------|
A|-444444444444444444444-4444444444444444444---------------------4444444444|
E|-------------------------------------------------------------------------|

G|-------------------------------------------------------------------------|
D|-------------------------------------------66666666666666666666----------|
A|-444444444444444444444-4444444444444444444---------------------4444444444|
E|-------------------------------------------------------------------------|

G|----------------------------------77777777777777777--|
D|------------------777777777777777--------------------|
A|-5555555555555555------------------------------------|
E|-----------------------------------------------------|

G|-777777777777777-7777777777777777-1414141414141414--------------------|
D|---------------------------------------------------121212121212121212-|
A|----------------------------------------------------------------------|
E|----------------------------------------------------------------------|

G|--------------------------------------------------------------|
D|------------------------------------------6-666-666-6-6-4-----|
A|-4-444-444-444-4-4-444-44-444-444-444-444-----------------7-6-|
E|--------------------------------------------------------------|

G|-----------------|
D|-----------------|
A|-4-444-444---2-3-|
E|-----------4-----|

G|--------------------------------------------------------------|
D|------------------------------------------6-666-666-6-6-4-----|
A|-4-444-444-444-4-4-444-44-444-444-444-444-----------------7-6-|
E|--------------------------------------------------------------|

G|-----------------|
D|-----------------|
A|-4-444-444---2-3-|
E|-----------4-----|

G|--------------------------------------------------------------------|
D|--------------------------------------------------------------------|
A|-4-444-444---2-3-4-444-444---2-3-4-444-444---2-3-4--------------2-3-|
E|-----------4---------------4---------------4-------4-444-4444-4-----|

G|----------------------------------------------------------------------|
D|----------------------------------------------------------------------|
A|-4-444-444---2-3-4-444-444---2-3-4-444-444---2-3-4--------------2-3-4-|
E|-----------4---------------4---------------4-------4-444-4444-4-------|
                                   Song 8
------------------------------Arrested in Shanghai--------------------------
____________________________________________________________________________

Song Meaning- "This song is For anyone who stood up when they were told to sit down. If
you live in american, China Or Europe, an individuals Desire to be true to themselves is the
part of the human spirit that should be set free. Freedom of Speech is a right that
should be given no matter the circumstances."

Play This In this Exact Order

--------------------\----------------\--------------------\----------------|
--------------------\----------------\--------------------\----------------|
---------------4/2--\----------------\---------------4/2--\----------------|
5-5-0-022-2-02----4-\5-5-0-022-0-2-4-\5-5-0-022-2-02----4-\5--5-0-022-20-24|

"They Thought I was Guilty"
------------------/-----------------/-----------------/-----------------|
------------------/-----------------/-----------------/-----------------|
------------------/-----------------/-----------------/-----------------|
-5-5-0-0/2-2/0-24-/5-5-0-0/2-2/0-24-/5-5-0-0/2-2/0-24-/5-5-0-0/2-2/0-24-|

------------------  ------------------/-------------------|
------------------  ------------------/-------------------|
------------------  ------------------/--------------4/2--|
-5-5-0-0/2-2/0-24-  -5-5-0-0/2-2/0-24-/5-5-0-022-2-02---4-|

"One night.."
------------------/-----------------/-----------------/-----------------|
------------------/-----------------/-----------------/-----------------|
------------------/-----------------/-----------------/-----------------|
-5-5-0-0/2-2/0-24-/5-5-0-0/2-2/0-24-/5-5-0-0/2-2/0-24-/5-5-0-0/2-2/0-24-|

------------------/------------------|
------------------/------------------|
------------------/------------------|
-5-5-0-0/2-2/0-24-/-5-5-0-0/2-2/0-24-|

------------------/-----------------/---------------/-------------------|
------------------/-----------------/-----------2-2-/-------------------|
------------------/-----------------/---------------/-------------4/2---|
-5-5-0-0/2-2/0-24-/5-5-0-0/2-2/0-24-/5-5-0-022-2----/5-5-0-022-202----4-|

-----------------------\---------------------\----------------------|
-2-22------------------\2-22-----------------\2-22------------------|
------4-2-222----4(4)--\-----4-2-222----4(4)-\----4-2-222-----4(4)--|
--------------2-4----4-\-------------2-4----4\------------2-4-------|

-----------------------------------------------------------------------|
-2-22-------------------------------------------------------------2--2-|
-----4-2-222----4(4)--7/--------------------------------------------4--|
-------------2-4----4-------------------------------------------2------|

----------------/--------------/
------------2-2-/-----------2-2/
-------------4--/------------4-/
-5-50-0-22-2----/5-50-0-22-2---/

------------------/-----------------/-----------------/--------------------|
------------------/-----------------/-----------------/--------------------|
------------------/-----------------/-----------------/---------------4/2--|
-5-5-0-0/2-2/0-24-/5-5-0-0/2-2/0-24-/5-5-0-0/2-2/0-24-/5-5-0-022-20(2)---4-|

-----------------------\---------------------\----------------------|
-2-22------------------\2-22-----------------\2-22------------------|
------4-2-222----4(4)--\-----4-2-222----4(4)-\----4-2-222-----4(4)--|
--------------2-4----4-\-------------2-4----4\------------2-4-------|

------------------------|
-2-22-------------------|
------4-2-222----4(4)---|  Just Keep Playing this over and over then..
--------------2-4----4--|

------------------/-----------------/-----------------/-----------------|
------------------/-----------------/-----------------/-----------------|
------------------/-----------------/-----------------/-----------------|
-5-5-0-0/2-2/0-24-/5-5-0-0/2-2/0-24-/5-5-0-0/2-2/0-24-/5-5-0-0/2-2/0-24-|

------------------/-------------------|
------------------/-------------------|
------------------/-------------------|
-5-5-0-0/2-2/0-24-/5-5-0-0/2-2/0-24---|

--------------------\-------------------------------------------|
--------------------\-------------------------------------------|
---------------4/2--\-------------------------------------------|
5-5-0-022-2-02----4-\5-5-0-022-2-0------------------------------|
                                     Song 9
----------------------------------Travis Bickle-----------------------------
____________________________________________________________________________

Song Meaning- "New York is our home away from home. we love it there. Travis Bickle
in Taxi Driver is the outsider and easy when your a punk to relate to. Walk through the Red
District in New York, C.A, Or Copenhagen and you'll know how he felt."

G|---------(4)--------(4)--|
D|-------4-----------4-----|
A|-5-4-2-------5-4-2-------|
E|-------------------------|

G|-------------------|
D|-------------------|
A|-2-22-----2-3-4-5--| X3
E|-----22-3----------|

G|-------------------------------------|
D|-----------------------------5-4-2-0-| X4
A|-2-222222----------------------------|
E|----------2-222222-3-3333333---------|

G|-----------------------------4-2----------------|
D|----------------4-2-2/4-5-55----4---------------|
A|-2-2-222/4------------------------5-0/5-5-0-00~-| X2
E|-----------2-22---------------------------------|

G|-------------------|
D|-------------------|
A|-2-22-----2-3-4-5--| X3
E|-----22-3----------|

G|-------------------------------------|
D|-----------------------------5-4-2-0-| X4
A|-2-222222----------------------------|
E|----------2-222222-3-3333333---------|

G|-----------------------------4-2----------------|
D|----------------4-2-2/4-5-55----4---------------|
A|-2-2-222/4------------------------5-0/5-5-0-00~-| X2
E|-----------2-22---------------------------------|

G|-------------------------------------------------------------|
D|-------7------6-666-666-666666-------6------4-444-444-444-4--|
A|-5-7-8--8-7-5------------------4-6-7--7-6-4------------------|
E|-------------------------------------------------------------|

G|----------------------------------------------------------------|
D|-------7------6-666-666-666666-7-9-10-9-7-5-7-5-4-6-7-6-4-2-0---|
A|-5-7-8--8-7-5-------------------------------------------------4-|
E|----------------------------------------------------------------|

G|-----------------------------4-2----------------|
D|----------------4-2-2/4-5-55----4---------------|
A|-2-2-222/4------------------------5-0/5-5-0-00~-| X2
E|-----------2-22---------------------------------|

G|-------------------|
D|-------------------|
A|-2-22-----2-3-4-5--| X3
E|-----22-3----------|

End on the second fret on the A string
                                     Song 10
-------------------------------------Memphis--------------------------------
____________________________________________________________________________

Song Meaning- "This is a touring song and its always been a big part of RANCID. theres
like a highway to make you forgot about lifes tragedies. As We walk this RANCIDS in
ready to play. Its 3:22 the Afternoon on monday June 23rd in room 122 at the Best Western"

G|-------------------------------|
D|-------------------------------|
A|-3-3-3-3-3-3-3-3-3-3-3-3-3-3---|
E|-----------------------------3-|

   (Play during the pickslide befor the chorus)
G|-----------|
D|--5-5------|
A|------3-3--|
E|-----------|
                                                                Three Times
G|-------------------------------------------------------------------------|
D|----------2-222222-3-33333/5--------------------------2/5555555555-3-2-0-|
A|--33333333-------------------3-33-333-0-00-000---------------------------|
E|----------------------------------------------333-333--------------------|

   (Play during the pickslide befor the chorus)
G|-----------|
D|--5-5------|
A|------3-3--|
E|-----------|

G|-------------------------------------------------------------------------|
D|----------2-222222-3-33333/5--------------------------2/5555555555-3-2-0-|
A|--33333333-------------------3-33-333-0-00-000---------------------------|
E|----------------------------------------------333-333--------------------|

G|-------------------------------|
D|-------------------------------|
A|-3-3-3-3-3-3-3-3-3-3-3-3-3-3---| Play ALOT
E|-----------------------------3-|

G|---------------------------------------5-555555/7-------------|
D|-3-333-3-333-2-22222222-5-555555-5-5/7------------5-555555----|
A|----------------------------------------------------------3---| X2
E|--------------------------------------------------------------|

G|-------------------------------|
D|-------------------------------|
A|-3-3-3-3-3-3-3-3-3-3-3-3-3-3---| Play ALOT
E|-----------------------------3-|

G|-----------|
D|--5-5------|
A|------3-3--|
E|-----------|
                                                               Three Times
G|-------------------------------------------------------------------------|
D|----------2-222222-3-33333/5--------------------------2/5555555555-3-2-0-|
A|--33333333-------------------3-33-333-0-00-000---------------------------|
E|----------------------------------------------333-333--------------------|

G|-------------------------------|
D|-------------------------------|
A|-3-3-3-3-3-3-3-3-3-3-3-3-3-3---|
E|-----------------------------3-|

G|--------|
D|--------|
A|-3-2-3--|
E|--------|

                                   Song 11
---------------------------------Spirit of 87'------------------------------
____________________________________________________________________________

Song Meaning- "In a World Filled With Violence and Where the Show was a refuge from the
previous situations that presented themselves Everyday. This is an anti-Violence song
its definatly not an any-disco song. lord knows we have spent and continue to spend time
the discos across the planet. Usually we aflear some sh** like in italy or sometimes
and we hang out all night. This Song goes out to all the places that had balls enough to put
on punk shows."

G|---------------------|
D|------0-00--0---2----|
A|-----------2-2-0-0---|
E|-2-22----------------|


G|----------4-4444-6-9----|
D|------2-4---------------|
A|-4-44-------------------|
E|------------------------|


G|---------------------------------4-444444444/7-2-222222222-4-2----|
D|------------------0-0000000000000-----------------------------4-2-|
A|------------------------------------------------------------------|
E|-2-222222222222222------------------------------------------------|


G|---------------------|
D|------0-00--0---2----|
A|-----------2-2-0-0---|
E|-2-22----------------|


G|----------4-4444-6-9----|
D|------2-4---------------|
A|-4-44-------------------|
E|------------------------|


G|---------------------------------4-444444444/7-2-222222222-4-2----|
D|------------------0-0000000000000-----------------------------4-2-|
A|------------------------------------------------------------------|
E|-2-222222222222222------------------------------------------------|


G|---------------------------------4-444444444/7-2-222222222-4-2----|
D|------------------0-0000000000000-----------------------------4-2-|
A|------------------------------------------------------------------|
E|-2-222222222222222------------------------------------------------|


G|---------------------|
D|------0-00--0---2----|
A|-----------2-2-0-0---|
E|-2-22----------------|

G|----------4-4444-6-9----|
D|------2-4---------------|
A|-4-44-------------------|
E|------------------------|


G|---------------------------------4-444444444/7-2-222222222-4-2----|
D|------------------0-0000000000000-----------------------------4-2-|
A|------------------------------------------------------------------|
E|-2-222222222222222------------------------------------------------|


G|---------------------|
D|------0-00--0---2----|
A|-----------2-2-0-0---|
E|-2-22----------------|
                                    Song 12
-----------------------------------Ghost Band-------------------------------
____________________________________________________________________________

Song Meaning- "Definatly a break up song. when you break up with someone in a relationship
it seems like every sad song you hear from that point is written about you."

G|-----------------------------------------------------------------------|
D|-----------------------------------------------------------------------|
A|-6-666-6-666-6-666---------6-666-6------------------------------66-6-6-|X2
E|-------------------4-444-4---------8-888-8888-8-888-8-8888-6-666-------|

G|--------------------------------------------------|
D|--------------------------------------------------|
A|----------------------------6-6666-6-6-6-6666-6-6-| X4
E|-4-444-4-4-4-4444-4-4-4-444-----------------------|

G|--------------------------------------------------------------------|
D|-----------------1-0-1-2-3-1-0------0-1-2-3-1-0---1-----------------|
A|-9-7-6-------------------------3--1-------------1---4-3-------------| X2
E|-------9-7-6-4-2----------------------------------------6-4-3-1-0---|

G|-----------------------------------------------------------------------|
D|-----------------------------------------------------------------------|
A|-6-666-6-666-6-666---------6-666-6------------------------------66-6-6-|X2
E|-------------------4-444-4---------8-888-8888-8-888-8-8888-6-666-------|

G|--------------------------------------------------|
D|--------------------------------------------------|
A|----------------------------6-6666-6-6-6-6666-6-6-| X4
E|-4-444-4-4-4-4444-4-4-4-444-----------------------|

G|--------------------------------------------------------------------|
D|-----------------1-0-1-2-3-1-0------0-1-2-3-1-0---1-----------------|
A|-9-7-6-------------------------3--1-------------1---4-3-------------| X4
E|-------9-7-6-4-2----------------------------------------6-4-3-2-0---|

G|-----------------------------------------------------------------------|
D|-----------------------------------------------------------------------|
A|-6-666-6-666-6-666---------6-666-6------------------------------66-6-6-|X2
E|-------------------4-444-4---------8-888-8888-8-888-8-8888-6-666-------|

G|---------------------------------------------------------------|
D|---------------------------------------------------------------|
A|-----------------6-666-6-8-6-5-----------------6-666-6-6-666-6-|
E|-6-666-6-8-888-8---------------6-666-6-8-888-8-----------------|
                                Song 13
-----------------------------Tropical London--------------------------------
____________________________________________________________________________

Song Meaning- "When Brodey left Tim in the middle of the record we took some time to
and came back with 7 new songs. This is one of them."

G|--------------------------------------------------------------|
D|--------------------------------------------------------------|
A|-------3----1-------------------------3---1-------------------|
E|-3---------------------6-------3-------------------6----------|

G|----------------------------------------------------------|
D|----------------------------------------------------------|
A|-----------------------------6-666-6-66-6h8---------------|  Play Twice
E|-6-66-6-6-66-6-3-33-3-3-33-3----------------6-66-6-6-66-5-|

G|-------------------------------------------------------------------------|
D|---5-3---3h5-------5-3---3h5------5-3---3h5--7h8-------------------------|
A|-------5---------------5--------------5----------------------8-88-8-6-5--|
E|-3-----------6---3-----------6--3----------6------6-666-6-6-6-----------8|

G|-------------------------------------------------------------------------|
D|---5-3---3h5-------5-3---3h5------5-3---3h5--7h8-------------------------|
A|-------5---------------5--------------5----------------------8-88-8-6-5--|
E|-3-----------6---3-----------6--3----------6------6-666-6-6-6-----------8|

G|----------------------------------------------------------|
D|----------------------------------------------------------|
A|-----------------------------6-666-6-66-6h8---------------|  Play Twice
E|-6-66-6-6-66-6-3-33-3-3-33-3----------------6-66-6-6-66-5-|

G|-------------------------------------------------------------------------|
D|---5-3---3h5-------5-3---3h5------5-3---3h5--7h8-------------------------|
A|-------5---------------5--------------5----------------------8-88-8-6-5--|
E|-3-----------6---3-----------6--3----------6------6-666-6-6-6-----------8|

G|-------------------------------------------------------------------------|
D|---5-3---3h5-------5-3---3h5------5-3---3h5--7h8-------------------------|
A|-------5---------------5--------------5----------------------8-88-8-6-5--|
E|-3-----------6---3-----------6--3----------6------6-666-6-6-6-----------8|

G|----------------------------------------------------------|
D|----------------------------------------------------------|
A|-----------------------------6-666-6-66-6h8---------------|  Play Twice
E|-6-66-6-6-66-6-3-33-3-3-33-3----------------6-66-6-6-66-5-|

Strum these notes in you want
G|--------------------------------------------------------------|
D|--------------------------------------------------------------|
A|-------3----1-------------------------3---1-------------------|
E|-3---------------------6-------3-------------------6----------|

G|----------------------------------------------------------|
D|----------------------------------------------------------|
A|-----------------------------6-666-6-66-6h8---------------|  Play Twice
E|-6-66-6-6-66-6-3-33-3-3-33-3----------------6-66-6-6-66-5-|

G|------------------------------------------------------------------------|
D|------------------------------------------56-7-8-88-88-8----------------|
A|----------------3-333-3-3-33-3-6-666-6-6-6--------------8-88-8-8-88-6-5-|
E|-3-333-3-3-3-33--------------------------------------------------------8|

G|------------------------------------------------------------------------|
D|---------------------------------------------5-6-7-8-88-88-8------------|
A|---------------6h5-333-3-3-1h33-3-6-666-6-6-6----------------8-88-8-6-5-|
E|-3-333-3-3-3-33--------------------------------------------------------8|


G|----------------------------------------------------------|
D|----------------------------------------------------------|
A|-----------------------------6-666-6-66-6h8---------------|  Play Twice
E|-6-66-6-6-66-6-3-33-3-3-33-3----------------6-66-6-6-66-5-|

G|----------------------------------------------------------|
D|----------------------------------------------------------|
A|-----------------------------6-666-6-66-6h8---------------|  Play Twice
E|-6-66-6-6-66-6-3-33-3-3-33-3----------------6-66-6-6-66-5-|

G|------------------------------|
D|------------------------------|
A|-6-666-6-66-6h8---------------|  Play Twice
E|----------------6-66-6-6-66-5-|

G|---------------------------|
D|----------------8-88-6-5---|
A|-6-666-6-66-6h8----------8-|  Play till end
E|---------------------------|
                                     Song 14
------------------------------------Roadblock-------------------------------
____________________________________________________________________________

Song meaning- "This is about playing live. This ones for Motorhead."

G|---------------|--------------|--------------|---------------|
D|---6---6h8---6-|---6---6h8---6|---6---6h8---6|---6-----------|
A|-8---8-----8---|-8---8-----8--|-8---8-----8--|-8---6-8-------|
E|---------------|--------------|--------------|---------4--6--|

G|-------------------------------------------------------------|
D|-------------------------------------------------------------|
A|-8-888-8-8-----------8-888-8-8-----------8-888-8-8-----------|
E|-----------4-44-6-66-----------4-44-6-66-----------4-44-6-66-|

G|-----------------------------------------------------------------|
D|---3-1-----------3-2-3-2-3-2-3-2---3-1-----------3-2-3-2-3-2-3-2-|
A|-4-----4---3-4-6-----------------4-----4---3-4-6-----------------|
E|---------4-------------------------------4-----------------------|

G|-------------------------------------------------------------------------|
D|------------------------------------------------------------7-8-10-8-7---|
A|-4-444-4-4-----------4-444-4-4-----------4-44444444444444--------------10|
E|-----------6-666-6-6-----------6-666-6-6------------------8--------------|

G|---------------|--------------|--------------|---------------|
D|---6---6h8---6-|---6---6h8---6|---6---6h8---6|---6-----------|
A|-8---8-----8---|-8---8-----8--|-8---8-----8--|-8---6-8-------|
E|---------------|--------------|--------------|---------4--6--|

G|-------------------------------------------------------------|
D|-------------------------------------------------------------|
A|-8-888-8-8-----------8-888-8-8-----------8-888-8-8-----------|
E|-----------4-44-6-66-----------4-44-6-66-----------4-44-6-66-|

G|-----------------------------------|
D|-----------------------------------|
A|-8------8------8-----8----8-----8--|
E|-----------------------------------|

G|-----------------------------------------------------------------|
D|---3-1-----------3-2-3-2-3-2-3-2---3-1-----------3-2-3-2-3-2-3-2-|
A|-4-----4---3-4-6-----------------4-----4---3-4-6-----------------|
E|---------4-------------------------------4-----------------------|

G|-------------------------------------------------------------------------|
D|------------------------------------------------------------7-8-10-8-7---|
A|-4-444-4-4-----------4-444-4-4-----------4-44444444444444--------------10|
E|-----------6-666-6-6-----------6-666-6-6------------------8--------------|

G|---------------|--------------|--------------|---------------|
D|---6---6h8---6-|---6---6h8---6|---6---6h8---6|---6-----------|
A|-8---8-----8---|-8---8-----8--|-8---8-----8--|-8---6-8-------|
E|---------------|--------------|--------------|---------4--6--|

G|-------------------------------------------------------------|
D|-------------------------------------------------------------|
A|-8-888-8-8-----------8-888-8-8-----------8-888-8-8-----------|
E|-----------4-44-6-66-----------4-44-6-66-----------4-44-6-66-|

G|-----------------------------------|
D|-----------------------------------|
A|-8------8------8-----8----8-----8--|
E|-----------------------------------|

G|-----------------------------------------------------------------|
D|---3-1-----------3-2-3-2-3-2-3-2---3-1-----------3-2-3-2-3-2-3-2-|
A|-4-----4---3-4-6-----------------4-----4---3-4-6-----------------|
E|---------4-------------------------------4-----------------------|

G|-------------------------------------------------------------------------|
D|------------------------------------------------------------7-8-10-8-7---|
A|-4-444-4-4-----------4-444-4-4-----------4-44444444444444--------------10|
E|-----------6-666-6-6-----------6-666-6-6------------------8--------------|

G|---------------|--------------|--------------|---------------|
D|---6---6h8---6-|---6---6h8---6|---6---6h8---6|---6-----------|
A|-8---8-----8---|-8---8-----8--|-8---8-----8--|-8---6-8-------|
E|---------------|--------------|--------------|---------------|
                                  Song 15
-------------------------------Born Frustrated------------------------------
____________________________________________________________________________

Song Meaning- "Lars and Tim were walking through a shopping mall on tour and they Love the
slabs of nothin. An idea was born. They thought consumers would be a great test.
Pleople watched and asimaesty that looked like a junky copping dope. the lyrics came
then the riff came second."

G|---------3-6----11-44-11---------3-6----11-44-11-|
D|---1-4-4-----22------------1-4-4-----22----------|   Play Four Times
A|-2-----------------------2-----------------------|
E|-------------------------------------------------|

G|---------------------------1-4---1-4---1-4---1-4-|
D|-------------------------2-----2-----2-----2-----|
A|---3-6---3-6---3-6---3-6-------------------------|
E|-4-----4-----4-----4-----------------------------|

G|---------------------------1-4---1-4----33-66-33-|
D|-------------------------2-----2-----44----------|
A|---3-6---3-6---3-6---3-6-------------------------|
E|-4-----4-----4-----4-----------------------------|

G|---------------------------1-4---1-4---1-4---1-4-|
D|-------------------------2-----2-----2-----2-----|
A|---3-6---3-6---3-6---3-6-------------------------|
E|-4-----4-----4-----4-----------------------------|

G|---------------------------1-4---1-4----33-66-33-|
D|-------------------------2-----2-----44----------|
A|---3-6---3-6---3-6---3-6-------------------------|
E|-4-----4-----4-----4-----------------------------|

G|---------3-6----11-44-11---------3-6----11-44-11-|
D|---1-4-4-----22------------1-4-4-----22----------|
A|-2-----------------------2-----------------------|  Play four times
E|-------------------------------------------------|

G|-----4-2---2h4p2---2--------------2-4-6-4-2---------4--------7-9-11-9-7--|
D|---------4-------4---4------2-2h4-----------4-----22-2-2-7-9-----------75|
A|-2-2---------------------------------------------------------------------|
E|-------------------------------------------------------------------------|

G|-----4-2---2h4p2---2--------------2-4-6-4-2---------4--4--4--4--4--4-|
D|---------4-------4---4------2-2h4-----------4-----22-22-22-22-22-22--|
A|-2-2-----------------------------------------------------------------|
E|---------------------------------------------------------------------|

G|--------------------------------------------|
D|-1h2-2-1h2-2-1h2-2-1h2-2-2222222222222222---|
A|------------------------------------------2-|
E|--------------------------------------------|

G|---------------------------------------------------|
D|---------------------------------------------------|
A|-----------------2-------------2222222222222222----|
E|-4---2----0------------4-2-0-----------------------|

G|---------3-6----11-44-11---------3-6----11-44-11-|
D|---1-4-4-----22------------1-4-4-----22----------|
A|-2-----------------------2-----------------------|  Play four times
E|-------------------------------------------------|

G|---------------------------------------------------------------|
D|-------------4-------------------------------------------------|
A|-2-----------------------22222222222222222222222222222222222-2-|
E|---------------------------------------------------------------|
                                  Song 16
----------------------------Back up against the wall------------------------
____________________________________________________________________________

Song Meaning- "Seems like more and more of our friends are unemplyed now days. When you try
to make ends meet it effects everyone involved."

G|----------------------------------------------|
D|-----------------------6-666-6-66--7-777-7/9--|
A|-7-777-7-7-7-7-777-7-7------------------------| X2 then Stop
E|----------------------------------------------|

G|---------------------------1-2-4---------------------77-66-44-22-|
D|-------------------------2---------1-2-4-9-999-9-9-9-------------|
A|-------------55-44-22-00---------2-------------------------------|
E|-7-777-7-7-7-----------------------------------------------------|

G|---1-2-4------------8-11------------8-11------------------------------|
D|-2---------1-2-4--9--------8-9-11-9--------8-9-11-8h99-8h99-8h99-8h99-|
A|---------2---------------9---------------9----------------------------|
E|----------------------------------------------------------------------|

G|-9h11-9-9-7-9h11-11-11h9p11-9-7-5--------|
D|----------------------------------7h5----|
A|--------------------------------------9/-|
E|-----------------------------------------|

G|---------------------------------------------------|
D|-----------------------------6-666-6-6-6-7-77-7h9--|
A|-----0h1h2-4-8-7-777-7-7-7-7-----------------------|
E|-0h4-----------------------------------------------|

G|----------------------------------------------|
D|-----------------------6-666-6-66--7-777-7/9--|
A|-7-777-7-7-7-7-777-7-7------------------------| X1
E|----------------------------------------------|

G|---------------------------1-2-4---------------------77-66-44-22-|
D|-------------------------2---------1-2-4-9-999-9-9-9-------------|
A|-------------55-44-22-00---------2-------------------------------|
E|-7-777-7-7-7-----------------------------------------------------|

G|---1-2-4------------8-11------------8-11------------------------------|
D|-2---------1-2-4--9--------8-9-11-9--------8-9-11-8h99-8h99-8h99-8h99-|
A|---------2---------------9---------------9----------------------------|
E|----------------------------------------------------------------------|

G|---------------------------------------------|
D|-----------------------2-222-2-2-2-222-2-2-2-|  Play Twice
A|-4-444-4-4-4-2-222-2-2-----------------------|
E|---------------------------------------------|

G|------------------------------------2h4-2h4------------------------------|
D|-----------2-22-----------4-44------------------------4-44---------4-44-2|
A|-4-44-2-22------0-00-4-44------2-22---------4-44-2-22-----2-22-4-44------|
E|-------------------------------------------------------------------------|

G|-----------------------------------------------6-------|
D|-------------------------6-666-6-6-6-7-777-7h9---9-7---|
A|-7-777-7-7-7-7-777-7-7-7-----------------------------9-|
E|-------------------------------------------------------|

G|---------------------------------------------1-|
D|-----------------------6-666-6-6-6-7-777-2-4---|
A|-7-777-7-7-7-7-777-7-7-------------------------|
E|-----------------------------------------------|

G|----------------------------------------------|
D|-----------------------6-666-6-6-6-7-777-7/9--|
A|-7-777-7-7-7-7-777-7-7------------------------|
E|----------------------------------------------|

G|----------------------------------------------|
D|-----------------------6-666-6-6-6-7-777-7/9--|
A|-7-777-7-7-7-7-777-7-7------------------------|
E|----------------------------------------------|

G|---------------------------1-2-4---------------------77-66-44-22-|
D|-------------------------2---------1-2-4-9-999-9-9-9-------------|
A|-------------55-44-22-00---------2-------------------------------|
E|-7-777-7-7-7-----------------------------------------------------|

G|---1-2-4------------8-11------------8-11------------------------------|
D|-2---------1-2-4--9--------8-9-11-9--------8-9-11-8h99-8h99-8h99-8h99-|
A|---------2---------------9---------------9----------------------------|
E|----------------------------------------------------------------------|

G|-9h11-9-9-7-9h11-11-11h9p11-9-7-5--------|
D|----------------------------------7h5----|
A|--------------------------------------9/-|
E|-----------------------------------------|
                                      Song 17
-------------------------------------Ivory Coast----------------------------
____________________________________________________________________________

Song meaning- "The Suspecious, the curfew on new years Eve so people could come out and celebrate
the new year. The French Soldiers were givin chanpagne and a few drunken ones shot these
guns in the air when the clock hit midnight. the next night the poeple were told they
be shot if they were out after night."

G|-------------------------------------------------------------|
D|-3-333-3-3-3---3-333-3-3-3---3-333-3-3-3---3-333-3-3-3-1-0---|
A|-----------------------------------------------------------3-|
E|-------------1-------------1-------------1-------------------|

G|----------------------------------------------------------------|
D|---------------------1-111-1----------------------5-555-5-3-----| Play
A|-1-111-1-1-1-111-1-1--------1-111-1-111-1-1-1-111-----------5-3-| Twice
E|----------------------------------------------------------------|

G|----------------------------------|
D|-3-333-3-3333-1-111-1h3-----------|  Play Three Times
A|------------------------1-111-1h3-|
E|----------------------------------|

G|----------------------------------------------------------------|
D|-3-333-3-3-33-333-3-3-3-333-3-3-1-111-1-1-1-111-1-1-1-----------|
A|----------------------------------------------------------------|
E|----------------------------------------------------------------|

                Play twice
G|-------------------------------------------------------------------------|
D|----------------------------------------1-111-1-1-111-1-1-111-1-1-111-1-1|
A|-1-111-1-1-1111-1-1-111-1-1-111-1-1-111----------------------------------|
E|-------------------------------------------------------------------------|

G|----------------------------------------------------------------|
D|---------------------1-111-1----------------------5-555-5-3-----| Play
A|-1-111-1-1-1-111-1-1--------1-111-1-111-1-1-1-111-----------5-3-| Twice
E|----------------------------------------------------------------|

G|----------------------------------|
D|-3-333-3-3333-1-111-1h3-----------|  Play Three Times
A|------------------------1-111-1h3-|
E|----------------------------------|

G|----------------------------------------------------------------|
D|-3-333-3-3-33-333-3-3-3-333-3-3-1-111-1-1-1-111-1-1-1-----------|
A|----------------------------------------------------------------|
E|----------------------------------------------------------------|

                Play twice
G|-------------------------------------------------------------------------|
D|----------------------------------------1-111-1-1-111-1-1-111-1-1-111-1-1|
A|-1-111-1-1-1111-1-1-111-1-1-111-1-1-111----------------------------------|
E|-------------------------------------------------------------------------|

G|-------------------------------------------------------------|
D|-3-333-3-3-3---3-333-3-3-3---3-333-3-3-3---3-333-3-3-3-1-0---|
A|-----------------------------------------------------------3-|
E|-------------1-------------1-------------1-------------------|

G|----------------------------------------------------------------|
D|---------------------1-111-1----------------------5-555-5-3-----| Play
A|-1-111-1-1-1-111-1-1--------1-111-1-111-1-1-1-111-----------5-3-| Twice
E|----------------------------------------------------------------|

G|----------------------------------|
D|-3-333-3-3333-1-111-1h3-----------|  Play Three Times
A|------------------------1-111-1h3-|
E|----------------------------------|

G|----------------------------------------------------------------|
D|-3-333-3-3-33-333-3-3-3-333-3-3-1-111-1-1-1-111-1-1-1-----------|
A|----------------------------------------------------------------|
E|----------------------------------------------------------------|

                Play Four Times
G|-------------------------------------------------------------------------|
D|----------------------------------------1-111-1-1-111-1-1-111-1-1-111-1-1|
A|-1-111-1-1-1111-1-1-111-1-1-111-1-1-111----------------------------------|
E|-------------------------------------------------------------------------|

G|---------------------------------------------------|
D|-1----------1--------------------------------------|
A|------3----------3----1----------------------------|
E|---------------------------------------------------|

                                   Song 18
---------------------------------Stand Your Ground--------------------------
____________________________________________________________________________

Song Meaning- "A song for the homeless people in America we live in a country with so much
wealth yet it can forget abou the ones down in their luck. We focused on L.A in this song
Even though the sun shines hot most of the time Los Angeles can be so Fu**in Cold."

--------------------------------------------------------------------------|
-3-333333333-33333333333---------------3-3333333333-----------------------|
-------------------------1-11111111111--------------3-33333333-1-11111111-|
--------------------------------------------------------------------------|

---------------------/--------------------/-------------------/------------|
-3-33-3-3------------/3-33-3-3------------/3-33-3-3-----------/3----1-1-1/2|
-----3-3--3-33-11111-/----3-3--3-33-11111-/----3-3--3-33-1111-/-0123-3-3---|
---------------------/--------------------/-------------------/------------|

---------------------/--------------------/-------------------/--5-5320--|
-3-33-3-3------------/3-33-3-3------------/3-33-3-3-----------/----------|
-----3-3--3-33-11111-/----3-3--3-33-11111-/----3-3--3-33-1111-/----------|
---------------------/--------------------/-------------------/----------|

--------------------------------------------------------------------------|
-3-333333333-33333333333---------------3-3333333333-----------------------|
-------------------------1-11111111111--------------3-33333333-1-11111111-|
--------------------------------------------------------------------------|

---------------------/--------------------/-------------------/------------|
-3-33-3-3------------/3-33-3-3------------/3-33-3-3-----------/3----1-1-1/2|
-----3-3--3-33-11111-/----3-3--3-33-11111-/----3-3--3-33-1111-/-0123-3-3---|
---------------------/--------------------/-------------------/------------|

---------------------/--------------------/-------------------/--5-5320--|
-3-33-3-3------------/3-33-3-3------------/3-33-3-3-----------/----------|
-----3-3--3-33-11111-/----3-3--3-33-11111-/----3-3--3-33-1111-/----------|
---------------------/--------------------/-------------------/----------|

--------------------------------------------------------------------------|
-3-333333333-33333333333---------------3-3333333333-----------------------|
-------------------------1-11111111111--------------3-33333333-1-11111111-|
--------------------------------------------------------------------------|

---------------------/--------------------/-------------------/------------|
-3-33-3-3------------/3-33-3-3------------/3-33-3-3-----------/3----1-1-1/2|
-----3-3--3-33-11111-/----3-3--3-33-11111-/----3-3--3-33-1111-/-0123-3-3---|
---------------------/--------------------/-------------------/------------|

----2-------------\---2-------------\---2-------------\--------------------|
-3-3-3-1--1-1-1/2-\3-3-3-1--1-1-1/2-\3-3-3-1--1-1-1/2-\3----------1-1-1/2--|
---------3-3-3----\--------3-3-3----\--------3-3-3----\--0-1-2-3-3-3-3-----|
------------------\-----------------\-----------------\--------------------|

---------------------/--------------------/-------------------/--5-5320--|
-3-33-3-3------------/3-33-3-3------------/3-33-3-3-----------/----------|
-----3-3--3-33-11111-/----3-3--3-33-11111-/----3-3--3-33-1111-/----------|
---------------------/--------------------/-------------------/----------|


--------------------------------------------------------------------------|
-3-333333333-33333333333---------------3-3333333333-----------------------|
-------------------------1-11111111111--------------3-33333333-1-11111111-|
--------------------------------------------------------------------------|

 (Twice)(end on 3rd Fret)
---------------------/--------------------/-------------------/------------|
-3-33-3-3------------/3-33-3-3------------/3-33-3-3-----------/3----1-1-1/2|
-----3-3--3-33-11111-/----3-3--3-33-11111-/----3-3--3-33-1111-/-0123-3-3---|
---------------------/--------------------/-------------------/------------|
                                   Song 19
----------------------------------Otherside---------------------------------
____________________________________________________________________________

"Robert Passed Away in 2001. He loved RANCID and was super proud of his little brother.
When we first played this back at sonora there was'nt a dry eye in the Studio."

Robert Martin Dapello
11-9-67 To 2-23-01
SxPxDxFxLxAxIxD
(Skunx for life and in Death)

                              (Otherside)


------------/--------------/-------------/------6-69-/-------------/
--------6-69/--------------/--------6-69-/7-7777-7---/--------6-69-/
-7-77777-7--/---------6-69-/7-777777-7---/-----------/7-777777-7---/
------------/-7-777777-7---/-------------/-----------/-------------/

--------------/
--------------/
---------6-69-/
-7-777777-7---/

----------------------------------------2-4-6-4-2---2-----------------/
-7-77777-5-555555-7-777777-5-555555-2-4-----------4---4-2---2---------/
----------------------------------------------------------4---4-2-----/
------------------------------------------------------------------4---/

---------------/-------------/-------------/------------/
----------6-69-/-------------/--------6-69-/------------/
--7-77777--7---/--------6-69-/7-777777-7---/-------7777-/
---------------/7-777777-7---/-------------/-55-77------/

--------------------------       ------------------2-4-6-4-2---|
-------------0-000-2-2221-       --------------2-4-----------4-|
-4-444--------------------       --00-22-00-22-----------------|
-------4-444--------------       ------------------------------|

---------------/-------------/-------------/------------/
----------6-69-/-------------/--------6-69-/------------/
--7-77777--7---/--------6-69-/7-777777-7---/-------7777-/
---------------/7-777777-7---/-------------/-55-77------/

--------------------------       ------------------2-4-6-4-2---|
-------------0-000-2-2221-       --------------2-4-----------4-|
-4-444--------------------       --00-22-00-22-----------------|
-------4-444--------------       ------------------------------|

------------/--------------/-------------/------6-69-/-------------/
--------6-69/--------------/--------6-69-/7-7777-7---/--------6-69-/
-7-77777-7--/---------6-69-/7-777777-7---/-----------/7-777777-7---/
------------/-7-777777-7---/-------------/-----------/-------------/

--------------/
--------------/
---------6-69-/
-7-777777-7---/

------------------------------------|
-7-77777-5-555555-7-777777-5-555555-|
------------------------------------|
------------------------------------|

------------/--------------/-------------/------6-69-/-------------/
--------6-69/--------------/--------6-69-/7-7777-7---/--------6-69-/
-7-77777-7--/---------6-69-/7-777777-7---/-----------/7-777777-7---/
------------/-7-777777-7---/-------------/-----------/-------------/

--------------/
--------------/
---------6-69-/
-7-777777-7---/

----------------------------------------2-4-6-4-2---2----------------/
-7-77777-5-555555-7-777777-5-555555-2-4-----------4---4-2---2--------/
----------------------------------------------------------4---4-2----/
------------------------------------------------------------------4-0/

I really hope you guys like this tab, If you think anything is wrong tell me and I will 
my best to fix it.

Please Rate and Comment I want to hear all your good or bad things to say about this tab

Email- Chosenfro68@yahoo.com
Tabber- Jamie McDonald
comments
We did not receive enough feedback on this tab! Please rate:
1 2 3 4 5
1 comment total.
0 reply
BucketheadRules wrote on October 24 2006, 09:32 pm

First of all, wow. This is excellent stuff for the most part. I applaud you, sir. I notice the difficulty because there's a lot of times when it's real hard to hear the bass on the record.

Here's my ratings by song:
1. Indestructible - 5
2. Fall Back Down - 5
3. Red Hot Moon - 3
4. David Courtney - 4
5. Start Now - 5
6. Out of Control - 5
7. Django - 4
8. Arrested in Shanghai - 5
9. Travis Bickle - 5
10. Memphis - 5
11. Spirit of 87' - 5 (great job on the chorus)
12. Ghost Band - 4 (should've been done with different fingering)
13. Tropical London - 4
14. Roadblock - 3
15. Born Frustrated - 5 (Great. Best bass song on the record)
16. Back up against the Wall - 4
17. Ivory Coast - 5
18. Stand Your Ground - 4
19. Otherside - 4 (fills were off, but close)

Also, I was wondering where you got those quotes about the song meanings and what they said because I guess you suck at typing because they were hard to read a lot of times. But all in all, a great job on this tab.

I want to post or [tab]
guest
You may want to rate the tab now too:
select rating
Please do not post tabs as comments. Select "correction" instead!