Oops, an error
Loading. Please wait.

Whistlin Dixie Tab

ver1
ver1

Solo

Whole song

More versions @911Tabs.com
20,817 views 46 this week
4 commentsread comments
1 2 3 4 5
accurate
x 3
Autoscroll
+/-
esc
set tempo
stop
Contributor
Difficulty
Tuning
intermediate
D# G# C# F# A# D#
Hey! There's an official Ultimate Guitar app which is ideal
for learning songs when you're away from computer. Get the app
WARNING: You are trying to view
                                    content from Ultimate-Guitar.com
                                    in an unauthorized application,
                                    which is prohibited.

                                    Please use an official Ultimate
                                    Guitar Tabs application for iPhone,
                                    iPad or Android to access legitimate
                                    chords, guitar, bass, and drum tabs
                                    from Ultimate-Guitar.com database.

                                    Type "ultimate guitar tabs" in Apple
                                    App Store's or Android Market's
                                    search to find the application.
-----------------------------------------------------------------------------
                            Whistlin` Dixie  - Randy Houser
-----------------------------------------------------------------------------
Tabbed by: DKBushee
Email: DKBushee@gmail.com

Ok, this is my first tab, so we'll see how it goes.
I think it's almost 100% correct except for some
minor errors here and there. I would love to have input!
     Thanks! 
Tuning: Db Ab Db Gb Bb Db

  Intro:                   
Db|-------------------------------|-----------------------------------------|
Bb|-------------------------------|-----------------------------------------|
Gb|-------------------------------|-----------------------------------------|
Db|------------------------------0|----------------------------0------------|
Ab|---5-3---3-2----3-2---2-0------|---5-3---3-2---3-2---2-0-----------------|
Eb|-0-----0-----0------0------3---|-0-----0-----0-----0-----3-----3---------|

Db|-------------------------------|-----------------------------------------|
Bb|-------------------------------|-----------------------------------------|
Gb|-------------------------------|-----------------------------------------|
Db|------------------------------0|----------------0------------------------|
Ab|---5-3---3-2----3-2---2-0------|---5-3---3-2-----------------------------|
Db|-0-----0-----0------0------3---|-0-----0-----3---------------------------|

Verse:
(0:12)
    Db sus2  
Db|----0-----|
Bb|----3-----|
Gb|----2-----|
Db|----0-----|
Ab|----x-----|
Db|----x-----|

Looks like this:
Db|-------0---------0----------0--------------------------------------------|
Bb|-------3---------3----------3--------------------------------------------|
Gb|-------2---------2----------2--------------------------------------------|
Db|-------0---------0----------0--------------------------------------------|
Ab|-0-0--------0-0--------0-0-----------------------------------------------|
Db|-0-0--------0-0--------0-0-----------------------------------------------|

Hit the chord 6x, the rest four beats after "..And I can only sing like I talk y'all.." and then: 

Db|---------------|
Bb|---------------|
Gb|---------------|
Db|-5-5-3---------|
Ab|-5-5-3---------|
Db|-5-5-3---------|

Chorus:
    Db sus2   C# sus2     F# 6
Db|---0---------0----------0--------------------------------------------|
Bb|---3---------3----------3--------------------------------------------|
Gb|---2---------2----------0--------------------------------------------|
Db|---0---------0----------0----------0---------------------------------|
Ab|---0---------3----------2----------0---------------------------------|
Db|---x---------------------------3~~-0---------------------------------|
 
       CHORDS/ LYRICS
                Db sus2            Db sus2 
Yeah i like to run with the old dogs
                 Db sus2           Db sus2 
learn bad habits from my pa pa
                  Db sus2          Db sus2 
i got a in with the outlaws 

and i can only sing like i talk ya'll


I like to smoke from my left hand

crankin' out stomp and a bar band

firin up another when the song ends

and hangin out here with my new friends


Chorus:
 Db sus2 
Cause im the son of the son of the south
C# sus2                   F# 6
daddy redneck momma half hippie
  Db sus2 
taught how to talk straight not back
C# sus2                      F# 6
or my little white butt get a whippin
  Db sus2                    
i like catfish cookin on a creek bank
C# sus2                        F# 6
kind you can't find in the city ya'll
  
I aint just whistlin dixie

verse 2
Well i aint scared of a shotgun

folk round here we all got one

dont give a damn or a dagum

if you dont like where i come from

i like a girl from a downhome

even better th'out a thang on

jump in you better hang on

fire it up and we're long gone

Chorus x2

whistlin dixie...

| /  slide up
| \  slide down
| h  hammer-on
| p  pull-off
| ~  vibrato
| +  harmonic
| x  Mute note
comments
We did not receive enough feedback on this tab! Please rate:
print report bad tab
1 2 3 4 5
4 comments total. Showing first comments.
0 reply
supermanspixie wrote on July 8 2013, 10:28 am

will you please tab out the guitar part at about 2 minutes into the song. its the part i call the dixie horn section i guess it would technically be the solo of the song. i can't find it anywhere tabbed out and it would be greatly appreciated if someone out tab it out for me. thanks :)

0 reply
digitaldave wrote on October 18 2013, 07:08 am

Tabbed by: Digitaldave

Here is the solo part if you want to call it that...

Tuning:Drop Eb

Eb|--------------------------------------------|
Bb|--------------------------------------------| Part I
Gb|-------------------------4h5----77--7-------|
Db|-------------55---5h7-----------------3v~~--|
Ab|--------------------------------------------|
Db|--------------------------------------------|

Eb|--------------------------------------------|
Bb|--------------------------------------------|
Gb|-------------------------0h22---2-----------| Part II
Db|------------00----0h2h4--------------4v~~---|
Ab|--------------------------------------------|
Db|--------------------------------------------|
Part III
Eb|------------------------------------------------------------------|
Bb|-------------------------4h5--------77---7------------------------|
Gb|------------55-----5h7------------------------3-----5---6--7------|
Db|----------------------------------------------3-----5---6--7------|
Ab|----------------------------------------------0-----3---4--5------|
Db|------------------------------------------------------------------|

0 reply
digitaldave wrote on October 18 2013, 07:12 am

Part III(correction)
Eb|---------------------------------------------------------------|
Bb|---------------------------------------------------------------|
Gb|--------------------------4h5------77---7-------3---5---6--7---|
Db|------------55------5h7-------------------------3---5---6--7---|
Ab|------------------------------------------------0---3---4--5---|
Db|---------------------------------------------------------------|

I want to post or [tab]
guest
You may want to rate the tab now too:
select rating
Please do not post tabs as comments. Select "correction" instead!