Oops, an error
Loading. Please wait.

Short People Tab

5,232 views 18 this week
no commentswrite comment
1 2 3 4 5
excellent!
x 3
Autoscroll
+/-
esc
set tempo
stop
Contributor
Tabbers playing skills
advanced
WARNING: You are trying to view
                                    content from Ultimate-Guitar.com
                                    in an unauthorized application,
                                    which is prohibited.

                                    Please use an official Ultimate
                                    Guitar Tabs application for iPhone,
                                    iPad or Android to access legitimate
                                    chords, guitar, bass, and drum tabs
                                    from Ultimate-Guitar.com database.

                                    Type "ultimate guitar tabs" in Apple
                                    App Store's or Android Market's
                                    search to find the application.
----------------------------------------------------------------------------
                          Short People - Randy Newman
----------------------------------------------------------------------------

Tabbed by: Dave S. 
Email: prime-prine@hotmail.com

Tuning: Standard

Artist: Randy Newman
Album: Little Criminals
Year: 1977



     A                         F#m7                        
E||-----------------0-------|-----------------2-------|
B||--2----2----2------------|--5----5----5------------|
G||--2----2----2------------|--2----2----2------------|
D||--2----2----2------------|--2----2----2------------|
A||--0-----------------0----|--4----4----4------------|
E||-------------------------|--2-----------------2----|


  B7                        E7sus4                      A                        
-------------------------|-------------------0-------|-------------------------|
--4----4----4----5-------|--3------3----3------------|--2----2----2----2-------|
--2----2----2------------|--2------2----2------------|--2----2----2----2-------|
--4----4----4------------|--2------2----2------------|--2----2----2----2-------|
--2-----------------2----|---------------------------|--0-------------------0--|
-------------------------|--0-------------------0----|-------------------------|


  F#m7                      B7                        E7sus4                     
-------------------------|-------------------------|---------------------------|
--5----5----5----5-------|--4----4----4----4-------|--3------3----3----3-------|
--2----2----2----2-------|--2----2----2----2-------|--2------2----2----2-------|
--2----2----2----2-------|--4----4----4----4-------|--2------2----2----2-------|
--4----4----4----4-------|--2-------------------2--|---------------------------|
--2-------------------2--|-------------------------|--0---------------------0--|


  A                         F#m7                      B7                       
-------------------------|-------------------------|-------------------------|
--2----2----2----2-------|--5----5----5----5-------|--4----4----4----4-------|
--2----2----2----2-------|--2----2----2----2-------|--2----2----2----2-------|
--2----2----2----2-------|--2----2----2----2-------|--4----4----4----4-------|
--0-------------------0--|--4----4----4----4-------|--2-------------------2--|
-------------------------|--2-------------------2--|-------------------------|


  E7sus4                      A                         A/G                     
---------------------------|-------------------------|-------------------------|
--3------3----3----3-------|--2----2----2----2-------|--2----2----2----2-------|
--2------2----2----2-------|--2----2----2----2-------|--0----0----0----0-------|
--2------2----2----2-------|--2----2----2----2-------|--2----2----2----2-------|
---------------------------|--0-------------------0--|-------------------------|
--0---------------------0--|-------------------------|--3-------------------3--|


  D                         F7                        A                         
-------------------------|-------------------------|-------------------------|
--3----3----3----3-------|--4----4----4----4-------|--2----2----2----2-------|
--2----2----2----2-------|--2----2----2----2-------|--2----2----2----2-------|
--0----0----0----0-------|--1----1----1----1-------|--2----2----2----2-------|
-------------------------|--3----------------------|--0-------------------0--|
--2-------------------2--|--1-------------------0--|-------------------------|


  A/G                       D                         F7                        
-------------------------|-------------------------|-------------------------|
--2----2----2----2-------|--3----3----3----3-------|--4----4----4----4-------|
--0----0----0----0-------|--2----2----2----2-------|--2----2----2----2-------|
--2----2----2----2-------|--0----0----0----0-------|--1----1----1----1-------|
-------------------------|-------------------------|--3----------------------|
--3-------------------3--|--2-------------------2--|--1-------------------0--|


  A         F#m7         B7        E7sus4            A         F#m7           
----------------------|---------------------------|----------------------|
--2----2----5----5----|--4----4----3------3-------|--2----2----5----5----|
--2----2----2----2----|--2----2----2------2-------|--2----2----2----2----|
--2----2----2----2----|--4----4----2------2-------|--2----2----2----2----|
--0---------4----4----|--2------------------------|--0---------4----4----|
------------2---------|------------0-----------0--|------------2---------|


  B7        E7sus4            A         F#m7         B7        E7sus4            
---------------------------|----------------------|---------------------------|
--4----4----3------3-------|--2----2----5----5----|--4----4----3------3-------|
--2----2----2------2-------|--2----2----2----2----|--2----2----2------2-------|
--4----4----2------2-------|--2----2----2----2----|--4----4----2------2-------|
--2------------------------|--0---------4----4----|--2------------------------|
------------0-----------0--|------------2---------|------------0-----------0--|


  A                         F#m7                      B7                          
-----------------0-------|-----------------2-------|-------------------------|
--2----2----2------------|--5----5----5------------|--4----4----4----5-------|
--2----2----2------------|--2----2----2------------|--2----2----2------------|
--2----2----2------------|--2----2----2------------|--4----4----4------------|
--0-----------------0----|--4----4----4------------|--2-----------------2----|
-------------------------|--2-----------------2----|-------------------------|


  E7sus4                      D7M                       A/C#                     
-------------------0-------|--2----2----2----2-------|-------------------------|
--3------3----3------------|--2----2----2----2-------|--2----2----2----2-------|
--2------2----2------------|--2----2----2----2-------|--2----2----2----2-------|
--2------2----2------------|--0-------------------0--|--2----2----2----2-------|
---------------------------|--0----------------------|--4-------------------4--|
--0-------------------0----|-------------------------|-------------------------|


  Bm                        E7sus4                   D7M                       
-------------------------|------------------------|--2----2----2----2-------|
--3----3----3----3-------|--3------3----3----3----|--2----2----2----2-------|
--4----4----4----4-------|--2------2----2----2----|--2----2----2----2-------|
--4----4----4----4-------|--2------2----2----2----|--0-------------------0--|
--2-------------------2--|------------------------|--0----------------------|
-------------------------|--0---------------------|-------------------------|


  C#m7                      Bm                        E7sus4                      
-------------------------|-------------------------|---------------------------|
--5----5----5----5-------|--3----3----3----3-------|--3------3----3----3-------|
--4----4----4----4-------|--4----4----4----4-------|--2------2----2----2-------|
--6----6----6----6-------|--4----4----4----4-------|--2------2----2----2-------|
--4-------------------4--|--2-------------------2--|---------------------------|
-------------------------|-------------------------|--0---------------------0--|


  A                         F#m7                      B7                        
-------------------------|-------------------------|-------------------------|
--2----2----2----2-------|--5----5----5----5-------|--4----4----4----4-------|
--2----2----2----2-------|--2----2----2----2-------|--2----2----2----2-------|
--2----2----2----2-------|--2----2----2----2-------|--4----4----4----4-------|
--0-------------------0--|--4----4----4----4-------|--2-------------------2--|
-------------------------|--2-------------------2--|-------------------------|


  E7sus4                      A                         F#m7                      
---------------------------|-------------------------|-------------------------|
--3------3----3----3-------|--2----2----2----2-------|--5----5----5----5-------|
--2------2----2----2-------|--2----2----2----2-------|--2----2----2----2-------|
--2------2----2----2-------|--2----2----2----2-------|--2----2----2----2-------|
---------------------------|--0-------------------0--|--4----4----4----4-------|
--0---------------------0--|-------------------------|--2-------------------2--|


  B7                        E7sus4                      A                        
-------------------------|---------------------------|-------------------------|
--4----4----4----4-------|--3------3----3----3-------|--2----2----2----2-------|
--2----2----2----2-------|--2------2----2----2-------|--2----2----2----2-------|
--4----4----4----4-------|--2------2----2----2-------|--2----2----2----2-------|
--2-------------------2--|---------------------------|--0-------------------0--|
-------------------------|--0---------------------0--|-------------------------|


  A/G                       D                         F7                       
-------------------------|-------------------------|-------------------------|
--2----2----2----2-------|--3----3----3----3-------|--4----4----4----4-------|
--0----0----0----0-------|--2----2----2----2-------|--2----2----2----2-------|
--2----2----2----2-------|--0----0----0----0-------|--1----1----1----1-------|
-------------------------|-------------------------|--3----------------------|
--3-------------------3--|--2-------------------2--|--1-------------------0--|


  A                         A/G                       D                         
-------------------------|-------------------------|-------------------------|
--2----2----2----2-------|--2----2----2----2-------|--3----3----3----3-------|
--2----2----2----2-------|--0----0----0----0-------|--2----2----2----2-------|
--2----2----2----2-------|--2----2----2----2-------|--0----0----0----0-------|
--0-------------------0--|-------------------------|-------------------------|
-------------------------|--3-------------------3--|--2-------------------2--|


  F7                        A                         A/G                      
-------------------------|-------------------------|-------------------------|
--4----4----4----4-------|--2----2----2----2-------|--2----2----2----2-------|
--2----2----2----2-------|--2----2----2----2-------|--0----0----0----0-------|
--1----1----1----1-------|--2----2----2----2-------|--2----2----2----2-------|
--3----------------------|--0-------------------0--|-------------------------|
--1-------------------0--|-------------------------|--3-------------------3--|


  D                         F7                        A         F#m7           
-------------------------|-------------------------|----------------------|
--3----3----3----3-------|--4----4----4----4-------|--2----2----5----5----|
--2----2----2----2-------|--2----2----2----2-------|--2----2----2----2----|
--0----0----0----0-------|--1----1----1----1-------|--2----2----2----2----|
-------------------------|--3----------------------|--0---------4----4----|
--2-------------------2--|--1-------------------0--|------------2---------|


  B7        E7sus4            A         F#m7         B7        E7sus4            
---------------------------|----------------------|---------------------------|
--4----4----3------3-------|--2----2----5----5----|--4----4----3------3-------|
--2----2----2------2-------|--2----2----2----2----|--2----2----2------2-------|
--4----4----2------2-------|--2----2----2----2----|--4----4----2------2-------|
--2------------------------|--0---------4----4----|--2------------------------|
------------0-----------0--|------------2---------|------------0-----------0--|


  A         F#m7         B7        E7sus4            A
----------------------|---------------------------|-------------------|
--2----2----5----5----|--4----4----3------3-------|--2----------------|
--2----2----2----2----|--2----2----2------2-------|--2----------------|
--2----2----2----2----|--4----4----2------2-------|--2----------------|
--0---------4----4----|--2------------------------|--0----------------|
------------2---------|------------0-----------0--|-------------------|


| /  slide up
| \  slide down
| h  hammer-on
| p  pull-off
| ~  vibrato
| +  harmonic
| x  Mute note
===========================================================================
comments
We did not receive enough feedback on this tab! Please rate:
1 2 3 4 5
I want to post or [tab]
guest
You may want to rate the tab now too:
select rating
Please do not post tabs as comments. Select "correction" instead!