Oops, an error
Loading. Please wait.

Bulletlive Tab

240 views 1 this week
no commentswrite comment
1 2 3 4 5
please rate
add to favorites launch autoscroll
font size
0
reset
Autoscroll
+/-
esc
set tempo
stop
Difficulty
intermediate
WARNING: You are trying to view
                                    content from Ultimate-Guitar.com
                                    in an unauthorized application,
                                    which is prohibited.

                                    Please use an official Ultimate
                                    Guitar Tabs application for iPhone,
                                    iPad or Android to access legitimate
                                    chords, guitar, bass, and drum tabs
                                    from Ultimate-Guitar.com database.

                                    Type "ultimate guitar tabs" in Apple
                                    App Store's or Android Market's
                                    search to find the application.
                                   Bullet                                      


                                                                   By Daniel
guitar 
Live version.



                                         
E||--------|-------|-------|--------||--------------------------|
B||--------|-------|-------|--------||--------------------------|
G||*-------|-------|-------|-------*||--6--6--6--6--6--6--6--6--|
D||*-------|-------|-------|-------*||--6--6--6--6--6--6--6--6--|
A||--------|-------|-------|--------||--4--4--4--4--4--4--4--4--|
E||--------|-------|-------|--------||--------------------------|


     
--------------------------|--------------------------|
--------------------------|--------------------------|
--9--9--9--9--9--9--9--9--|--8--8--8--8--8--8--8--8--|
--9--9--9--9--9--9--9--9--|--8--8--8--8--8--8--8--8--|
--7--7--7--7--7--7--7--7--|--6--6--6--6--6--6--6--6--|
--------------------------|--------------------------|


     
-----------------------------|--------------------------|
-----------------------------|--------------------------|
-----------5--8pbr--5--------|--6--6--6--6--6--6--6--6--|
--6-----6--------------6-----|--6--6--6--6--6--6--6--6--|
-----6--------------------6--|--4--4--4--4--4--4--4--4--|
-----------------------------|--------------------------|


  
--------------------------|--------------------------|
--------------------------|--------------------------|
--9--9--9--9--9--9--9--9--|--8--8--8--8--8--8--8--8--|
--9--9--9--9--9--9--9--9--|--8--8--8--8--8--8--8--8--|
--7--7--7--7--7--7--7--7--|--6--6--6--6--6--6--6--6--|
--------------------------|--------------------------|


      
--------------------------|----------------------|----------------------|
--------------------------|----------------------|----------------------|
-----------5-----5--------|------------6---------|------------6---------|
--6-----6-----------6-----|-----------------4----|-----------------6----|
-----6-----------------6--|----------------------|----------------------|
--------------------------|----------------------|----------------------|


      
----------------------|-------------------------|----------------------|
--7---------7---------|--------4----------------|----------------------|
----------------------|-----4-----4-----4-------|------------6---------|
----------------------|--4-----------4----------|-----------------4----|
----------------------|-------------------------|----------------------|
----------------------|-------------------------|----------------------|


     
----------------------|----------------------|------------------------|
----------------------|--7---------7---------|--------4---------------|
------------6---------|----------------------|-----4-----4------------|
-----------------6----|----------------------|--4-----------4---------|
----------------------|----------------------|------------------------|
----------------------|----------------------|------------------------|


     
----------------------|----------------------|----------------------|
------------5---------|------------5---------|------------5---------|
-----------------6----|-------6---------6----|-------6---------6----|
-------6--------------|----------------------|----------------------|
--4-------------------|----------------------|----------------------|
----------------------|--5-------------------|--6-------------------|


      
------------------------|----------------------|----------------------|
------------5-----------|------------5---------|------------5---------|
-------6-------6--------|-----------------6----|-------6---------6----|
------------------------|-------6--------------|----------------------|
------------------------|--4-------------------|----------------------|
--5---------------5-----|----------------------|--5-------------------|


          
----------------------|-------------------|---------------------|
------------5---------|-------------------|-----------10--------|
-------6---------6----|--2----------------|--L---------9--------|
----------------------|--2----------------|--L---------7--------|
----------------------|--0----------------|--L---------7--------|
--6-------------------|-------------------|---------------------|


                                           C#5                       
 
-------------------|--------------------|---------------------------|
--9----------------|--L--------L--------|---------------------------|
--8----------------|--L--------L--------|--6---6--6--6--6--6--6--6--|
--6----------------|--L--------L--------|--6---6--6--6--6--6--6--6--|
--6----------------|--L--------L--------|--4---4--4--4--4--4--4--4--|
-------------------|--------------------|---------------------------|


  G#5                         A5                       
 
---------------------------|--------------------------|
---------------------------|--------------------------|
---------------------------|--2--2--2--2--2--2--2--2--|
--6---6--6--6--6--6--6--6--|--2--2--2--2--2--2--2--2--|
--6---6--6--6--6--6--6--6--|--0--0--0--0--0--0--0--0--|
--4---4--4--4--4--4--4--4--|--------------------------|


  B5                         C#5                       
  
--------------------------|---------------------------|
--------------------------|---------------------------|
--4--4--4--4--4--4--4--4--|--6---6--6--6--6--6--6--6--|
--4--4--4--4--4--4--4--4--|--6---6--6--6--6--6--6--6--|
--2--2--2--2--2--2--2--2--|--4---4--4--4--4--4--4--4--|
--------------------------|---------------------------|


  G#5                         A5                       
    
---------------------------|--------------------------|
---------------------------|--------------------------|
---------------------------|--2--2--2--2--2--2--2--2--|
--6---6--6--6--6--6--6--6--|--2--2--2--2--2--2--2--2--|
--6---6--6--6--6--6--6--6--|--0--0--0--0--0--0--0--0--|
--4---4--4--4--4--4--4--4--|--------------------------|


  B5                                                  
  
--------------------------|--------------------------|
--------------------------|--------------------------|
--4--4--4--4--4--4--4--4--|--6--6--6--6--6--6--6--6--|
--4--4--4--4--4--4--4--4--|--6--6--6--6--6--6--6--6--|
--2--2--2--2--2--2--2--2--|--4--4--4--4--4--4--4--4--|
--------------------------|--------------------------|


  
--------------------------|--------------------------|
--------------------------|--------------------------|
--9--9--9--9--9--9--9--9--|--8--8--8--8--8--8--8--8--|
--9--9--9--9--9--9--9--9--|--8--8--8--8--8--8--8--8--|
--7--7--7--7--7--7--7--7--|--6--6--6--6--6--6--6--6--|
--------------------------|--------------------------|


  
--------------------------|--------------------------|
--------------------------|--------------------------|
-----------5-----5--------|--6--6--6--6--6--6--6--6--|
--6-----6-----------6-----|--6--6--6--6--6--6--6--6--|
-----6-----------------6--|--4--4--4--4--4--4--4--4--|
--------------------------|--------------------------|


 
--------------------------|--------------------------|
--------------------------|--------------------------|
--9--9--9--9--9--9--9--9--|--8--8--8--8--8--8--8--8--|
--9--9--9--9--9--9--9--9--|--8--8--8--8--8--8--8--8--|
--7--7--7--7--7--7--7--7--|--6--6--6--6--6--6--6--6--|
--------------------------|--------------------------|


    
--------------------------|----------------------|----------------------|
--------------------------|----------------------|----------------------|
-----------5-----5--------|------------6---------|------------6---------|
--6-----6-----------6-----|-----------------4----|-----------------6----|
-----6-----------------6--|----------------------|----------------------|
--------------------------|----------------------|----------------------|


     
----------------------|-------------------------|----------------------|
--7---------7---------|--------4----------------|----------------------|
----------------------|-----4-----4-----4-------|------------6---------|
----------------------|--4-----------4----------|-----------------4----|
----------------------|-------------------------|----------------------|
----------------------|-------------------------|----------------------|


     
----------------------|----------------------|----------------------|
----------------------|------------7---------|----------------------|
------------6---------|--6--------------6----|----------------------|
-----------------6----|----------------------|----------------------|
----------------------|----------------------|--2---------2----L----|
----------------------|----------------------|----------------------|


 
-----------------------|-----------------------|-----------------------|
-----------5-----------|-----------5-----------|-----------5-----------|
--------6-----------6--|--------6-----------6--|--------6-----------6--|
-----6-----------------|-----6-----------------|-----6-----------------|
--4--------------------|-----------------------|-----------------------|
-----------------------|--5--------------------|--6--------------------|


   
-----------------------|-----------------------|-----------------------|
-----------5-----------|-----------5-----------|-----------5-----------|
--------6-----------6--|--------6-----------6--|--------6-----------6--|
-----6-----------------|-----6-----------------|-----6-----------------|
-----------------------|--4--------------------|-----------------------|
--5--------------------|-----------------------|--5--------------------|


   
---------------------|-------------------|---------------------|
---------------------|-------------------|-----------10--------|
---------------------|--2----------------|--L---------9--------|
------------6--------|--2----------------|--L---------7--------|
-------4-------------|--0----------------|--L---------7--------|
--6------------------|-------------------|---------------------|


                                           C#5                       
    
-------------------|--------------------|---------------------------|
--9----------------|--L--------L--------|---------------------------|
--8----------------|--L--------L--------|--6---6--6--6--6--6--6--6--|
--6----------------|--L--------L--------|--6---6--6--6--6--6--6--6--|
--6----------------|--L--------L--------|--4---4--4--4--4--4--4--4--|
-------------------|--------------------|---------------------------|


  G#5                         A5                       
  
---------------------------|--------------------------|
---------------------------|--------------------------|
---------------------------|--2--2--2--2--2--2--2--2--|
--6---6--6--6--6--6--6--6--|--2--2--2--2--2--2--2--2--|
--6---6--6--6--6--6--6--6--|--0--0--0--0--0--0--0--0--|
--4---4--4--4--4--4--4--4--|--------------------------|


  B5                         C#5                       
   
--------------------------|---------------------------|
--------------------------|---------------------------|
--4--4--4--4--4--4--4--4--|--6---6--6--6--6--6--6--6--|
--4--4--4--4--4--4--4--4--|--6---6--6--6--6--6--6--6--|
--2--2--2--2--2--2--2--2--|--4---4--4--4--4--4--4--4--|
--------------------------|---------------------------|


  G#5                         A5                       
  
---------------------------|--------------------------|
---------------------------|--------------------------|
---------------------------|--2--2--2--2--2--2--2--2--|
--6---6--6--6--6--6--6--6--|--2--2--2--2--2--2--2--2--|
--6---6--6--6--6--6--6--6--|--0--0--0--0--0--0--0--0--|
--4---4--4--4--4--4--4--4--|--------------------------|


  B5                         C#5                       
 
--------------------------|---------------------------|
--------------------------|---------------------------|
--4--4--4--4--4--4--4--4--|--6---6--6--6--6--6--6--6--|
--4--4--4--4--4--4--4--4--|--6---6--6--6--6--6--6--6--|
--2--2--2--2--2--2--2--2--|--4---4--4--4--4--4--4--4--|
--------------------------|---------------------------|


  G#5                         A5                       
 
---------------------------|--------------------------|
---------------------------|--------------------------|
---------------------------|--2--2--2--2--2--2--2--2--|
--6---6--6--6--6--6--6--6--|--2--2--2--2--2--2--2--2--|
--6---6--6--6--6--6--6--6--|--0--0--0--0--0--0--0--0--|
--4---4--4--4--4--4--4--4--|--------------------------|


  B5                         C#5                       
 
--------------------------|---------------------------|
--------------------------|---------------------------|
--4--4--4--4--4--4--4--4--|--6---6--6--6--6--6--6--6--|
--4--4--4--4--4--4--4--4--|--6---6--6--6--6--6--6--6--|
--2--2--2--2--2--2--2--2--|--4---4--4--4--4--4--4--4--|
--------------------------|---------------------------|


  G#5                         A5                       
  
---------------------------|--------------------------|
---------------------------|--------------------------|
---------------------------|--2--2--2--2--2--2--2--2--|
--6---6--6--6--6--6--6--6--|--2--2--2--2--2--2--2--2--|
--6---6--6--6--6--6--6--6--|--0--0--0--0--0--0--0--0--|
--4---4--4--4--4--4--4--4--|--------------------------|


  B5                         A5                       
 
--------------------------|--------------------------|
--------------------------|--------------------------|
--4--4--4--4--4--4--4--4--|--2--2--2--2--2--2--2--2--|
--4--4--4--4--4--4--4--4--|--2--2--2--2--2--2--2--2--|
--2--2--2--2--2--2--2--2--|--0--0--0--0--0--0--0--0--|
--------------------------|--------------------------|


  A5                         E5                       
 
--------------------------|--------------------------|
--------------------------|--------------------------|
--2--2--2--2--2--2--2--2--|--------------------------|
--2--2--2--2--2--2--2--2--|--2--2--2--2--2--2--2--2--|
--0--0--0--0--0--0--0--0--|--2--2--2--2--2--2--2--2--|
--------------------------|--0--0--0--0--0--0--0--0--|


  E5                         F#5                       
  
--------------------------|---------------------------|
--------------------------|---------------------------|
--------------------------|---------------------------|
--2--2--2--2--2--2--2--2--|--4---4--4--4--4--4--4--4--|
--2--2--2--2--2--2--2--2--|--4---4--4--4--4--4--4--4--|
--0--0--0--0--0--0--0--0--|--2---2--2--2--2--2--2--2--|


  F#5                         C#5                       
 
---------------------------|---------------------------|
---------------------------|---------------------------|
---------------------------|--6---6--6--6--6--6--6--6--|
--4---4--4--4--4--4--4--4--|--6---6--6--6--6--6--6--6--|
--4---4--4--4--4--4--4--4--|--4---4--4--4--4--4--4--4--|
--2---2--2--2--2--2--2--2--|---------------------------|


  B5                         A5                       
  
--------------------------|--------------------------|
--------------------------|--------------------------|
--4--4--4--4--4--4--4--4--|--2--2--2--2--2--2--2--2--|
--4--4--4--4--4--4--4--4--|--2--2--2--2--2--2--2--2--|
--2--2--2--2--2--2--2--2--|--0--0--0--0--0--0--0--0--|
--------------------------|--------------------------|


  A5                         E5                       
  
--------------------------|--------------------------|
--------------------------|--------------------------|
--2--2--2--2--2--2--2--2--|--------------------------|
--2--2--2--2--2--2--2--2--|--2--2--2--2--2--2--2--2--|
--0--0--0--0--0--0--0--0--|--2--2--2--2--2--2--2--2--|
--------------------------|--0--0--0--0--0--0--0--0--|


  E5                         F#5                       
  
--------------------------|---------------------------|
--------------------------|---------------------------|
--------------------------|---------------------------|
--2--2--2--2--2--2--2--2--|--4---4--4--4--4--4--4--4--|
--2--2--2--2--2--2--2--2--|--4---4--4--4--4--4--4--4--|
--0--0--0--0--0--0--0--0--|--2---2--2--2--2--2--2--2--|


  F#5                                                                   
          
---------------------------|---------------------|---------------------|
---------------------------|---------------------|---------------------|
---------------------------|------------6--------|---------------------|
--4---4--4--4--4--4--4--4--|-------6-------------|------------6--------|
--4---4--4--4--4--4--4--4--|--4------------------|-------6-------------|
--2---2--2--2--2--2--2--2--|---------------------|--4------------------|


                                                 
                                            
-----------|-----|-----|-----|-----|-----|------------------------|
-----------|-----|-----|-----|-----|-----|------------------------|
-----------|-----|-----|-----|-----|-----|------------------------|
-----------|-----|-----|-----|-----|-----|------------------------|
-----------|-----|-----|-----|-----|-----|------------------------|
-----------|-----|-----|-----|-----|-----|--0--0-------0--0-------|


           
----------------------------------|---------------------------|
----------------------------------|---------------------------|
--13--13--13--13--13--13--13--13--|--14--14--13--13-----------|
----------------------------------|---------------------------|
----------------------------------|---------------------------|
----------------------------------|---------------------------|


  
-------------------------|--------------------------------|
-------------------------|--------------------------------|
--11--11--9--9-----------|--9--9--8--8-------8S-9S-11S-12-|
-------------------------|--------------------------------|
-------------------------|--------------------------------|
-------------------------|--------------------------------|


  
------------------------------------|---------------------------------------|
------------------------------------|---------------------------------------|
-----13----13-13-13-13--13--13--13--|--14--14--13--13-----13-13-13-13-13-13-|
------------------------------------|---------------------------------------|
------------------------------------|---------------------------------------|
------------------------------------|---------------------------------------|


    
------------------------------------|-------------------------------|
------------------------------------|-------------------------------|
--11--11--9--9--9-9-9-9-9-9-9-9-9-9-|--9-9-9-9--8--8--9--9--11--11--|
------------------------------------|-------------------------------|
------------------------------------|-------------------------------|
------------------------------------|-------------------------------|


  C#5                         G#5                       
  
---------------------------|---------------------------|
---------------------------|---------------------------|
--6---6--6--6--6--6--6--6--|---------------------------|
--6---6--6--6--6--6--6--6--|--6---6--6--6--6--6--6--6--|
--4---4--4--4--4--4--4--4--|--6---6--6--6--6--6--6--6--|
---------------------------|--4---4--4--4--4--4--4--4--|


  A5                         B5                       
  
--------------------------|--------------------------|
--------------------------|--------------------------|
--2--2--2--2--2--2--2--2--|--4--4--4--4--4--4--4--4--|
--2--2--2--2--2--2--2--2--|--4--4--4--4--4--4--4--4--|
--0--0--0--0--0--0--0--0--|--2--2--2--2--2--2--2--2--|
--------------------------|--------------------------|


  C#5                         G#5                       
   
---------------------------|---------------------------|
---------------------------|---------------------------|
--6---6--6--6--6--6--6--6--|---------------------------|
--6---6--6--6--6--6--6--6--|--6---6--6--6--6--6--6--6--|
--4---4--4--4--4--4--4--4--|--6---6--6--6--6--6--6--6--|
---------------------------|--4---4--4--4--4--4--4--4--|


  A5                         B5                       
  
--------------------------|--------------------------|
--------------------------|--------------------------|
--2--2--2--2--2--2--2--2--|--4--4--4--4--4--4--4--4--|
--2--2--2--2--2--2--2--2--|--4--4--4--4--4--4--4--4--|
--0--0--0--0--0--0--0--0--|--2--2--2--2--2--2--2--2--|
--------------------------|--------------------------|


  C#5                         G#5                       
  
---------------------------|---------------------------|
---------------------------|---------------------------|
--6---6--6--6--6--6--6--6--|---------------------------|
--6---6--6--6--6--6--6--6--|--6---6--6--6--6--6--6--6--|
--4---4--4--4--4--4--4--4--|--6---6--6--6--6--6--6--6--|
---------------------------|--4---4--4--4--4--4--4--4--|


  A5                         B5                       
 
--------------------------|--------------------------|
--------------------------|--------------------------|
--2--2--2--2--2--2--2--2--|--4--4--4--4--4--4--4--4--|
--2--2--2--2--2--2--2--2--|--4--4--4--4--4--4--4--4--|
--0--0--0--0--0--0--0--0--|--2--2--2--2--2--2--2--2--|
--------------------------|--------------------------|


  C#5                         G#5                       
 
---------------------------|---------------------------|
---------------------------|---------------------------|
--6---6--6--6--6--6--6--6--|---------------------------|
--6---6--6--6--6--6--6--6--|--6---6--6--6--6--6--6--6--|
--4---4--4--4--4--4--4--4--|--6---6--6--6--6--6--6--6--|
---------------------------|--4---4--4--4--4--4--4--4--|


  A5                         B5                                               
                         
--------------------------|--------------------------|
--------------------------|--------------------------|
--2--2--2--2--2--2--2--2--|--4--4--4--4--4--4--4--4--|
--2--2--2--2--2--2--2--2--|--4--4--4--4--4--4--4--4--|
--0--0--0--0--0--0--0--0--|--2--2--2--2--2--2--2--2--|
--------------------------|--------------------------|




Duration Legend
---------------
W - whole
H - half
Q - quarter
E - 8th
S - 16th
T - 32nd
X - 64th
. - note dotted
|-n-|  - n-tuplets


Tablature Legend
----------------
L - tied note
x - dead note
g - grace note
(n) - ghost note
> - accentuded note
NH - natural harmonic
AH - artificial harmonic
TH - tapped harmonic
SH - semi harmonic
PH - pitch harmonic
h - hammer on
p - pull off
b - bend
br - bendRelease
pb - preBend
pbr - preBendRelease
brb - bendReleaseBend
\n/ - tremolo bar dip
\n - tremolo bar dive
-/n - tremolo bar Release up
/n\ - tremolo bar inverted dip
/n - tremolo bar return
-\n - tremolo bar Release down
S - shift slide
s - legato slide
/ -  slide into from below or out of upwards
\ -  slide into from above or out of downwards
~ - vibrato
W - wide vibrato
tr - trill
TP - tremolo picking
T - tapping
S - slap
P - pop
< - fade in
^ - brush up
v - brush down
comments
We did not receive enough feedback on this tab! Please rate:
print report bad tab
1 2 3 4 5
I want to post or [tab]
guest
You may want to rate the tab now too:
select rating
Please do not post tabs as comments. Select "correction" instead!