Oops, an error
Loading. Please wait.

Dead Letters Tab

ver1
ver1

Intro

Album

More versions @911Tabs.com
2,782 views 1 this week
no commentswrite comment
1 2 3 4 5
not so good
x 7
add to favorites launch autoscroll
font size
0
reset
Autoscroll
+/-
esc
set tempo
stop
Contributor
WARNING: You are trying to view
                                    content from Ultimate-Guitar.com
                                    in an unauthorized application,
                                    which is prohibited.

                                    Please use an official Ultimate
                                    Guitar Tabs application for iPhone,
                                    iPad or Android to access legitimate
                                    chords, guitar, bass, and drum tabs
                                    from Ultimate-Guitar.com database.

                                    Type "ultimate guitar tabs" in Apple
                                    App Store's or Android Market's
                                    search to find the application.
THE RASMUS - DEAD LETTERS ( Whole Album ) 

##############################################################
1. IN THE SHADOWS 
##############################################################
Intro :
e|---------------------------------------------|
H|---------------------------------------------|
G|-7777-6--------------------------------------|
D|-7777-6-7-4444---4-7-9-11-12-12-11-7-4-6-777-|
A|-5555-4-7-4444---4-7-9-11-12-12-11-7-4-6-777-|
E|--------5-2222-0-2-5-7-9--10-10-9--5-2-4-555-|

   D   F#m                 Bm                  F#m
No sleep No sleep until I´m done with finding the answer
    D  F#m                  Bm                 F#m 
Wont stop wont stop before I find a cure for this cancer
D         F#m               Bm           F#m
Sometimes I feel like I am down so and disconnected
D       F#m              Bm         F#m
Somehow I know that I am haunted to be wanted

           D                  F#m           Bm
I´ve been watching I´ve been waiting in the shadows
       F#m
For my time
           D                   F#m         Bm
I´ve been searching I´ve been living for tomorrows
       F#m
All my life

(that are the same chords )
They say that I must learn to kill before I can feel save
But I I rather kill myself than turn into their slave
Sometimes I feel that I should go and play with the thunder
Somehow I just dont wanna stay and wait for a wonder

I´ve been watching I´ve been waiting in the shadows
For my time
I´ve been searching I´ve been living for tomorrows
All my life

Baby,I´ve been walking walking in circles
Watching,waiting for something
Heal me,touch me,feel me come take me higher

I´ve been watching I´ve been waiting in the shadows
For my time
I´ve been searching I´ve been living for tomorrows
All my life

##############################################################
2. GUILTY 
##############################################################

Intro

E|---------------------1--------||
H|---------2------2--4----------||
G|------------3-----------------||
D|-1--4--3----------------------||
A|------------------------------||
E|------------------------------||

Ebm  
I feel guilty
Db           B  
my words are empty
Ebm
no signs to give you
Db           B
i don't have the time for you
Eb          
you say i'm heartless
Db               
and you say i don't care
Eb                Db
i used to be there for you

                B     Bbm    B      Bbm    B     Bbm                     
and you've said i seem so dead, that i have changed
Bb          B
but so have you

Eb      Db                      B    Bbm
guilty, ohhh            guilty i feel so
Eb     B     Db        B      C#    Eb
empty, yeah empty you know how to make me feel


i put a shield upon you
i didn't mean to hurt you
i would have only poisoned your mind
never meant to make you cry
you've been so thoughtless
i can see right through you
you used to be there for me
so don't you leave say goodbye
cause you have changed but so have i
guilty...guilty i feel so
empty... empty you know how to make me feel
i never thought that the time and the distance
between us made you so much colder
i'll carry the world on my shoulders
guilty...   empty...
guilty, ... guilty i feel so 
empty, ... empty you know how to make me feel


##############################################################
3. FIRST DAY OF MY LIFE
##############################################################

intro ( = main riff )
|------------------------------------------------------------------------|
|------------------------------------------------------------------------|
|-66----------------66---------------------------------------------------|
|-66----------------66----------------77----------------77------99-------|
|-44-7777-9999-7777-44-7777-9999-7777-77-7777-9999-7777-77-7777-99-7777--|
|-------------------------------------55----------------55------77-------|

verse                                     
|---------------------------------------| [play it 3x ]
|---------------------------------------|
|-66666666------------------------------|
|-66666666-77777777-44444444-66666666---|
|-44444444-77777777-44444444-66666666---|
|----------55555555-22222222-44444444---|

|-------|
|-------|
|-------|
|-7-3-4-|
|-7-3-4-|
|-5-1-2-|


Refrain
|---------------------------------------------------------|
|---------------------------------------------------------|
|-----------9999-66------------9999--6666------------9-9--|
|-4444-9999-9999-66--4444-9999-9999--6666---4444-6-4-9-8--|
|-4444-9999-7777-44--4444-9999-7777--4444---4444-6-4-7-6--|
|-2222-7777----------2222-7777--------------2222-4-2------|
                                                 

- main riff - 

Verse

Refrain


|------------------------------|
|------------------------------|
|------------------------------|
|-4----6----4----6----4----6---|
|-4----6----4----6----4----6---|
|-2----4----2----4----2----4---|

-CHORUS-

Outro
|--------------------------|
|--------------------------|
|-----9-8-6-----------8-8--|
|-6-4-9-8-6-9-7-6-4-2-8-6--|
|-6-4-7-6-4-9-7-6-4-2-6----|
|-4-2-------7-5-4-2-0------|

then play the mainriff again and end wih 466 .



##############################################################
4. STILL STANDING
##############################################################

This Tab is not made by me , i used it cause i think it sounds
correct , it's from gashler , i hope i'm allowed to use it .



Dm               Bb               C               Gm
I wish you were here tonight with me to see the northern lights

Dm               Bb               C               Gm
I wish you were here tonight with me

Dm                  Bb             C                     Gm
I wish I had could have you by my side tonight when the sky is burning

Dm               Bb            C           Gm
I wish I could have you by my side

Prechorus:

Bb                        C       
Cause I've been down and I've been crawling

Bb                  C
Won't back down no more


Chorus:

Dm                  Bb     C              A
Cant you stop the lies, falling from the skies

Bb   C  Dm  Gm           C
Down on me, Im still standing

Dm                  Bb  C            A
Cant you roll the dice, I might be suprised

Bb    C      Dm   Gm         C       Bb       A  
Conscience clear, Im still standing here


Bridge:

Dm         C         Bb           A
Something sacred, something so beautiful

Dm         C        Bb       A
Something quiet to ease my mind

Dm         C         Bb        A        Dm   C   Bb   A
When the pressure's taking me over and over


------------------------------------------------------------


2nd verse lyrics:

Burns like a thousand stars, though you are light years away
Burns like a thousand stars or more

2nd prechorus:

You're up there, you're always with me
Smiling down on me

3rd Prechorus:

Cause I've been down and I've been crawling 
Pushed around and always falling 
You're up there, you're always with me 
Smiling down on me 


1st verse
Prechorus
Chorus
2nd verse
Prechorus
Chorus
Bridge
Prechorus
Chorus

##############################################################
5. IN MY LIFE
##############################################################


INTRO : 
1st Guitar 
e|-------------------------------|
H|-------------------------------|
G|-------------------------------|
D|-------------------------------|
A|-------------------------------|
E|1-1-1-1-1-1-1-1-1-1-1-3-3-3/4-3|

2nd Guitar 
(0,08 min. )
A|-3-2-3-2-3-3-2-| 1x then play this a few times: A|-3-2-3-3-2-|
E|---------------|                                E|-----------|

(0,22 min. ) 

A|-2-3-2---3-2---3-2---2-3-2-3-2---3-2---3-2---2-3-2-3-2---|
E|-------3-----3-----3-----------3-----3-----3-----------3-|

A|3-2---3-2---2-3-2-3-2----3-2---3-2---2-3-|
E|----3-----3-----------3------3-----3-----|



E5
Feel the heat below my feet
A5
I have to go, no time to sleep
E5
Can't believe the things you say 
A5
I turn my head and walk away
Dm                    E5       A5
You make me sick, you make me nervous
E5
Times are gone when you would say 
A5
This is the one and seize the day
E5
Times are gone for honesty
A5
"My victory is your defeat"
D5                       E5      A5
Oh can't you see you've been mistaken

Chorus:
      C5     E5             A5       F5
In my life I decide and it turns me on
      A5      E5           A5        G5
How I am, how I live, who I love, yeah
     C5           E5              A5     F5
In my way I feel strong and it turns me on
      A5         E5       A5       E5
In my life, I decide, I decide, I decide


Verse 2:
All you do, you can't deny it, 
It's waste of time, waste of time
Can i suggest that you invest 
In something more than hopelessness
Before you know, the ride is over

Chorus

E
It's up to you if you give it up
Am
It's up to you if you won't stop x2

It's up to you if you give it up, give it up 
It's up to you if you won't stop
It's up to you if you give it up, give it up, 
It's up to you, it's up to you

The record shows that you're dead but you're still living
Every time you have died you have been given
Another chance to fix your bad attitude
And make a move, it's up to you 

It's up to you if you give it up, give it up x3

it's up to you x2




##############################################################
6. TIME TO BURN
##############################################################

This Tab is not from me , but it sounds correct to me so i used this .



Tabbed by:Lizzip Lyon
Email:lml4999@hotmail.com     

Great song, Great album.


Tuning:standard

     Intro 
E|------------------------------------------------------------------------| 
B|---4/9-\-7--8--9-\-7-\-4-------4/9-\-7--8--9-\-7-\-4--------------------| 
G|------------------------------------------------------------------------| 
D|------------------------------------------------------------------------| 
A|------------------------------------------------------------------------| 
E|------------------------------------------------------------------------|

   bout 28 sec in:
E|---------------------------------------------------------------------| 
B|---------------------------------------------------------------------| 
G|---------------------------------------------------------------------| 
D|-6--6-5-4-3-2---6--6-5-4-3-2--6--6-5-4-3-2------13--13--11--9--8--6--| 
A|-6--6-5-4-3-2---6--6-5-4-3-2--6--6-5-4-3-2------13--13--11--9--8--6--| 
E|-4--4-3-2-1-0---4--4-3-2-1-0--4--4-3-2-1-0------11--11--9---7--6--4--| 

  Verse  
E|------------------------------------------------------------------------| 
B|------------------------------------------------------------------------| 
G|------------------------------------------------------------------------| 
D|------------------------------------------------------------------------| 
A|------------------------------------------------------------------------| 
E|4-4-3-2-1~-7-7-6-5-4-3--9-9-8-7-6-2--4--4-3-2-1--7-7-6-5-4-3--9-9-8-7-6-2| 

  Chorus   
E|------------------------------------------------------------------------| 
B|------------------------------------------------------------------------| 
G|------------------------------------------------------------------------| 
D|-6--6-5-4-3-2---6--6-5-4-3-2--6--6-5-4-3-2------13--13--11--9--8--6---8-| 
A|-6--6-5-4-3-2---6--6-5-4-3-2--6--6-5-4-3-2------13--13--11--9--8--6---8-| 
E|-4--4-3-2-1-0---4--4-3-2-1-0--4--4-3-2-1-0------11--11--9---7--6—-4---6-| 

  bout 1:15 : 
E|------------------------------------------------------------------------| 
B|------------------------------------------------------------------------| 
G|------------------------------------------------------------------------| 
D|--9--5--7--4--5--2--4--9---9--8--7--6--5---9--5--7--4--5--2--4----------| 
A|--9--5--7--4--5--2--4--9---9--8--7--6--5---9--5--7--4--5--2--4----------| 
E|--7--3--5--2--3--0--2--7---7--6--5--4--3---7--3--5--2--3--0--2----------| 

  Verse   
E|------------------------------------------------------------------------| 
B|------------------------------------------------------------------------| 
G|------------------------------------------------------------------------| 
D|-6--6-5-4-3-2---6--6-5-4-3-2--6--6-5-4-3-2------13--13--11--9--8--6-----| 
A|-6--6-5-4-3-2---6--6-5-4-3-2--6--6-5-4-3-2------13--13--11--9--8--6-----| 
E|-4--4-3-2-1-0---4--4-3-2-1-0--4--4-3-2-1-0------11--11--9---7--6—-4-----| 

  bout 1:55 : 
E|------------------------------------------------------------------------|
B|------------------------------------------------------------------------| 
G|------------------------------------------------------------------------| 
D|------------------------------------------------------------------------| 
A|------------------------------------------------------------------------| 
E|4-4-3-2-1~-7-7-6-5-4--11-9-9-8-7-6-2--4--4-3-2-1--7-7-6-5-4-3--9-9-8-7-6-2| 

  bout 2:19 : 
E|---------------| 
B|---------------| 
G|---------------| 
D|---5---7---9---| 
A|---5---7---9---| 
E|---3---5---7---| 



  Chorus  
E|------------------------------------------------------------------------| 
B|------------------------------------------------------------------------| 
G|------------------------------------------------------------------------| 
D|--9--5--7--4--5--2--4--9---9--8--7--6--5---9--5--7--4--5--2--4--4-------| 
A|--9--5--7--4--5--2--4--9---9--8--7--6--5---9--5--7--4--5--2--4--4-------| 
E|--7--3--5--2--3--0--2--7---7--6--5--4--3---7--3--5--2--3--0--2--2-------| 

  Verse 
E|------------------------------------------------------| 
B|------------------------------------------------------| 
G|------------------------------------------------------| 
D|---5-5--7----7-7--9-7----5-5-2----4-----4--4--4--4----| 
A|---5-5--7----7-7--9-7----5-5-2----4-----4--4--4--4----| 
E|---3-3--5----5-5--7-5----3-3-0----2-----2--2--2--2----| 
      
  Chorus  
E|-------------------------------------------------------------------| 
B|-------------------------------------------------------------------|
G|-------------------------------------------------------------------| 
D|--9--5--7--4--5--2--4--9---9--8--7--6--5---9--5--7--4--5--2--4--4--|
A|--9--5--7--4--5--2--4--9---9--8--7--6--5---9--5--7--4--5--2--4--4--| 
E|--7--3--5--2--3--0--2--7---7--6--5--4--3---7--3--5--2--3--0--2--2--| 

  Bridge   
E|------------------------------------------------------------------------| 
B|------------------------------------------------------------------------| 
G|------------------------------------------------------------------------| 
D|--12--8--10-7--8--5--7--12--------12--8--10--7--8--5--7-----7---7---7---| 
A|--12--8--10-7--8--5--7--12--------12--8--10--7--8--5--7-----7---7---7---| 
E|--10--6--8--5--6--3--5--10--------10--6--8---5--6--3--5-----5---5---5---| 

 bout 4:00 : 
E|------------------------------------------------------| 
B|------------------------------------------------------| 
G|------------------------------------------------------| 
D|-6--6-5-4-3-2---6--6-5-4-3-2--6--6-5-4-3-2------------| 
A|-6--6-5-4-3-2---6--6-5-4-3-2--6--6-5-4-3-2------------| 
E|-4--4-3-2-1-0---4--4-3-2-1-0--4--4-3-2-1-0------------| 


| /  slide up
| \  slide down
| h  hammer-on
| p  pull-off
| ~  vibrato
| +  harmonic
| x  Mute note





##############################################################
7. NOT LIKE THE OTHER GIRLS
##############################################################

INTRO
                
                                                                           
|-----------------------------------------------|
|-12----10----8---7---------12----10----8---7---|
|----12----11---9---7 ---12----12----11---9---7-|
|-----------------------------------------------|
|-----------------------------------------------|
|-----------------------------------------------|

                                            
|-------------------------|-------------------------|
|-----12----10----8---7---|------12-------10--------|
|12------12----11---9---7-|--12-----12-11----11--9--|
|-------------------------|-------------------------|
|-------------------------|-------------------------|
|-------------------------|-------------------------|






E5              
No more blame I am destined to keep you sane
                   C5
Gotta rescue the flame
                               E5
Gotta rescue the flame in your heart

                         
No more blood, I will be there for you my love
I will stand by your side
The world has forsaken my girl


C5                            G5           D5
  I should have seen it would be this way
C5                               B5                   E5
  I should have known from the start what she's up to
C5                G5               D5         
  When you have loved and you've lost someone
C5                   B5           E5 
  You know what it feels like to lose


        E5
She's fading away
C5
Away from this world
D5
Drifting like a feather
       G5                 B5
She's not like the other girls
      E5         
She lives in the clouds
      C5               
and talks to the birds
D5           
Hopeless little one
       G5                  B5         
She's not like the other girls I know


No more shame, she has felt too much pain, in her life
In her mind she's repeating the words
All the love you put out will retun to you

I should 
have seen it would be this way
I should have known from the start what she's up to
When you have loved and you've lost someone close to you
You know what it feels like to lose


##############################################################
8. THE ONE I LOVE
##############################################################



INTRO: (this intro goes clean)
e|---5-------5-------5-------5-----|
H|-----5-6-----5-6-----3-5-----3-5-|
G|-7-------7-------5-------5-------|
D|---------------------------------|
A|---------------------------------|
E|---------------------------------| x2

Verse 1: (goes clean to)
          Dm                      C              Am
Haven't slept in a week my bed has become my coffin
          Dm                              C        Am
Cannot breath cannot speak my head's like a bomb still waiting
          A#                Gm
Take my heart and take my soul
          A
I don't need them anymore



Refrain :
            Dm
The one i love 
   F           C          Gm               Dm
is striking me down on my knees (The one i love)
F           C     Gm                Dm
Drowning me in my dreams (The one i love)
F        C    Gm     Dm
Over and over again 
            A
dragging me under



VERSE 
      Dm                           Am  
Hynoptized by the night silently rising beside me
       Dm                           Am
Emptyness nothingness is burning a hole inside me
          A#                Gm
Take my faith and take my pride
          A
I don't need them anymore

BRIDGE: (it's the INTRO played several times)

INTRO
VERSE 1
Refrain
INTRO
VERSE 2
Refrain



##############################################################
9.BACK IN THE PICTURE
##############################################################

A                                 E          F#m
There were times in my life I was down on my knees, now it's over
Bm                            A    E
Deep inside my heart I know
A                                   E          F#m
Simply put I've been stabbed in the back ever since I remember
Bm                             A
And deep inside it hurt to let go


F#m             E        F#m         E      D
I'm back in the picture, back in the picture
              A             F7  D
I wonder what took so long, so long

F#m             E        F#m         E      D
I'm back in the picture, back in the picture
              A             F   D
I wonder what took so long, so long


Dedicate everything I create 
To my friends I would die for
But you will always be the one
Memories that you can't overrun, memories I could cry for
I thought I'd always be on the run


##############################################################
10. FUNERAL SONG
##############################################################

INTRO
e|-3---1-3-1-1--------------3---|
H|---4---------4-3-4--4-3-1-----|
G|------------------------------| 
D|------------------------------|
A|-------------------------- ---|
E|---------------------------- -|

e|--------3-|
H|--4-3-1---|
G|----------|
D|----------|




Ab5              G5
   I dumped you again
Db5          C5
   I don't understand
Ab5                 G5
   It's happened before
Db5               C5
   Can't take it no more

Ab5               D5
   These foolish games
Db5                   C5
   Always end up in confusion
Ab5               D5
   I'll take you back
            G5                  
   Just to leave you once again

C5             Ab5
   I died in my dreams
                           Eb5
   What's that supposed to mean?
                   Bb5   
   Got lost in the fire
C5              Ab5
   I died in my dreams
                         Eb5
   Reaching out for your hand
            Bb5   
   My fatal desire

I've failed you again
Cause I let you stay
I used to pretend
That I felt okay

Just one big lie
Such a perfect illusion
I made you mine
Just to hurt you once again
I want to post or [tab]
guest
You may want to rate the tab now too:
select rating
Please do not post tabs as comments. Select "correction" instead!