Oops, an error
Loading. Please wait.

Hide From The Sun Tab

2,292 views 1 this week
4 commentsread comments
1 2 3 4 5
accurate
x 6
add to favorites launch autoscroll
font size
0
reset
Autoscroll
+/-
esc
set tempo
stop
Contributor
WARNING: You are trying to view
                                    content from Ultimate-Guitar.com
                                    in an unauthorized application,
                                    which is prohibited.

                                    Please use an official Ultimate
                                    Guitar Tabs application for iPhone,
                                    iPad or Android to access legitimate
                                    chords, guitar, bass, and drum tabs
                                    from Ultimate-Guitar.com database.

                                    Type "ultimate guitar tabs" in Apple
                                    App Store's or Android Market's
                                    search to find the application.
Artist : The Rasmus
Album : Hide From the Sun
Tab by: Beberasmus bebe_4048@hotmail.com

A lot of tabs are mine and other not, but the tabs that are not mine are right, so plz 
and let's get started....

<....................................................1.SHOT.........................................................>

E|------------------------------------------------------|
B|------------------------------------------------------|
G|-xx-xxx-----------------------------------------------|
D|-xx-xxx----4----------4-----------5--------------2----|
A|-xx-xxx-2-5---5--2-2-5---5---2-4-7----7----4--1-4---4-|
E|-xx-xxx-----------------------------------------------|x2

Verse
                       P.M.                                   When end the first time
E|----------------------------------------------------------|   E|--------------------|
B|----------------------------------------------------------|   B|--------------------|
G|----------------------------------------------------------|   G|--------7/4---------|
D|-4-4-4-4-4-4-4-4-4-4--5-5-5-5-5--6-6-6-6-6--9-9-9-9-9-----|X2 D|--------------------|
A|-2-2-2-2-2-2-2-2-2-2--2-2-2-2-2--4-4-4-4-4--7-7-7-7-7-----|   A|--------------------|
E|----------------------------------------------------------|   E|--------------------|

Verse Continued-guitar changes
                       P.M.
E|---------------------------------------------|
B|---------------------------------------------|
G|---------------------------------------------|
D|-4-4-4-4-4-----------------------------------|
A|-2-2-2-2-2--7-7-7-7-7--5-5-5-5-5--4-4-4-4-4--|
E|------------5-5-5-5-5--3-3-3-3-3--2-2-2-2-2--|X2

Prechorus
E|----------------|
B|----------------|
G|----------------|
D|-9/--4-4-4------|
A|-9/--4-4-4------|
E|-7/--2-2-2------|

Chorus-I'll take the shot...

E|-----------------------------------------------------|
B|-----------------------------------------------------|
G|-4-4-4-4-4-4-4-4--6-6-6-6-6-6-6-6--3-3-3-3-3-3-3-3-3-|
D|-4-4-4-4-4-4-4-4--5-5-5-5-5-5-5-5--2-2-2-2-2-2-2-2-2-|
A|-2-2-2-2-2-2-2-2--4-4-4-4-4-4-4-4--1-1-1-1-1-1-1-1-1-|
E|-----------------------------------------------------|

E|-----------------------------------|
B|-----------------------------------|
G|-----------------------------------|
D|-2-2-2-2-2-2-2-2--4-4-4-4-4-4-4-4--|
A|-2-2-2-2-2-2-2-2--4-4-4-4-4-4-4-4--|
E|-0-0-0-0-0-0-0-0--2-2-2-2-2-2-2-2--|X2


Intro again

E|------------------------------------------------|
B|------------------------------------------------|
G|------------------------------------------------|
D|------4----------4-----------5--------------2---|
A|--2-5---5--2-2-5---5---2-4-7----7----4--1-4---4-|
E|------------------------------------------------|x2


Verse 2
                       P.M.                                   When end the first time
E|----------------------------------------------------------|   E|--------------------|
B|----------------------------------------------------------|   B|--------------------|
G|----------------------------------------------------------|   G|--------7/4---------|
D|-4-4-4-4-4-4-4-4-4-4--5-5-5-5-5--6-6-6-6-6--9-9-9-9-9-----|X2 D|--------------------|
A|-2-2-2-2-2-2-2-2-2-2--2-2-2-2-2--4-4-4-4-4--7-7-7-7-7-----|   A|--------------------|
E|----------------------------------------------------------|   E|--------------------|

Verse Continued-guitar changes

                       P.M.
E|---------------------------------------------|
B|---------------------------------------------|
G|---------------------------------------------|
D|-4-4-4-4-4-----------------------------------|
A|-2-2-2-2-2--7-7-7-7-7--5-5-5-5-5--4-4-4-4-4--|
E|------------5-5-5-5-5--3-3-3-3-3--2-2-2-2-2--|X2

Chorus-I'll take the shot...

E|----------------------------------------------------------------------------------------|
B|----------------------------------------------------------------------------------------|
G|-4-4-4-4-4-4-4-4--6-6-6-6-6-6-6-6--3-3-3-3-3-3-3-3-3------------------------------------|
D|-4-4-4-4-4-4-4-4--5-5-5-5-5-5-5-5--2-2-2-2-2-2-2-2-2--2-2-2-2-2-2-2-2--4-4-4-4-4-4-4-4--|
A|-2-2-2-2-2-2-2-2--4-4-4-4-4-4-4-4--1-1-1-1-1-1-1-1-1--2-2-2-2-2-2-2-2--4-4-4-4-4-4-4-4--|
E|------------------------------------------------------0-0-0-0-0-0-0-0--2-2-2-2-2-2-2-2--|X2


Intro again
E|------------------------------------------------|
B|------------------------------------------------|
G|------------------------------------------------|
D|------4----------4-----------5--------------2---|
A|--2-5---5--2-2-5---5---2-4-7----7----4--1-4---4-|
E|------------------------------------------------|x2


Interlude-stars... enough broken hearts

E|-------------|
B|-------------|
G|-------------|
D|-9--7--5--4--|
A|-9--7--5--4--|
E|-7--5--3--2--|..rest


Chorus-I'll take the shot...

E|----------------------------------------------------------------------------------------|
B|----------------------------------------------------------------------------------------|
G|-4-4-4-4-4-4-4-4--6-6-6-6-6-6-6-6--3-3-3-3-3-3-3-3-3------------------------------------|
D|-4-4-4-4-4-4-4-4--5-5-5-5-5-5-5-5--2-2-2-2-2-2-2-2-2--2-2-2-2-2-2-2-2--4-4-4-4-4-4-4-4--|
A|-2-2-2-2-2-2-2-2--4-4-4-4-4-4-4-4--1-1-1-1-1-1-1-1-1--2-2-2-2-2-2-2-2--4-4-4-4-4-4-4-4--|
E|------------------------------------------------------0-0-0-0-0-0-0-0--2-2-2-2-2-2-2-2--|X2


End with the intro

E|------------------------------------------------|
B|------------------------------------------------|
G|------------------------------------------------|
D|------4----------4-----------5--------------2---|
A|--2-5---5--2-2-5---5---2-4-7----7----4--1-4---4-|
E|------------------------------------------------|x2

Final two chords

E|-------|
B|-------|
G|-------|
D|-2--4--|
A|-2--4--|
E|-0--2--|


<.................................................2.NIGHT AFTER NIGHT......................................................>

Intro:
E|----------------------------------------------|
B|----------------------------------------------|
G|----------------------------------------------|
D|-2-2-5p2-2-5p4-2-2----------------------------|x2
A|------------------------2-2-5p2-2-5-2-2-2-6-6-|
E|----------------------------------------------|

When the 2nd time ends:
E|-------|
B|-------|
G|-------|
D|-9-4-2-|x2
A|-9-4-2-|
E|-7-2-0-|

With distortion
E|----------------------------------------------|
B|----------------------------------------------|
G|----------------------------------------------|
D|-2-2-5p2-2-5p4-2-2----------------------------|x4
A|-----------------------2-2-5^p2-2-5-2-2-2-6-6-|
E|----------------------------------------------|


Verse:

E|-----------------------------------------------------------------|
B|-----------------------------------------------------------------|
G|-2-2-2-2-2-2-2-2-----------------4-4-4-4-4-4-4-4-2-2-2-2-2-2-2-2-|
D|-----------------2-2-2-2-2-2-2-2---------------------------------|X2
A|-----------------------------------------------------------------|
E|-----------------------------------------------------------------|


E|-------------------|
B|-5---4---4---5-----|
G|-------------------|
D|-------------------|X2
A|-------------------|
E|-------------------|

Then:
E|-----------------------------------------|
B|-----------------------------------------|
G|------------------5-5-5-5--4-4-4-4-------|
D|-2-2-2-2-2-2-2-2--x-x-x-x--x-x-x-x--2-2--|
A|-2-2-2-2-2-2-2-2--3-3-3-3--2-2-2-2--2-2--|
E|-0-0-0-0-0-0-0-0--------------------0-0--|
Like an angel you came...every time when I prayed

E|-----------------------------------------|
B|-----------------------------------------|
G|------------------5-5-5-5--4-4-4-4-------|
D|-2-2-2-2-2-2-2-2--x-x-x-x--x-x-x-x--2-2--|
A|-2-2-2-2-2-2-2-2--3-3-3-3--2-2-2-2--2-2--|
E|-0-0-0-0-0-0-0-0--------------------0-0--|
Guardian of my dreams...watching me when I sleep

E|-----------------------------------------|
B|-----------------------------------------|
G|------------------5-5-5-5--4-4-4-4-------|
D|-2-2-2-2-2-2-2-2--x-x-x-x--x-x-x-x--2-2--|
A|-2-2-2-2-2-2-2-2--3-3-3-3--2-2-2-2--2-2--|
E|-0-0-0-0-0-0-0-0--------------------0-0--|
Like an angel you came...every time when I screamed

E|-------------------------|
B|-------------------------|
G|-------------------------|
D|-2-2-2-2-2-2-2-2-2-2-2-2-|
A|-2-2-2-2-2-2-2-2-2-2-2-2-|
E|-0-0-0-0-0-0-0-0-0-0-0-0-|

Chorus:
E|------------------------------------------|
B|------------------------------------------|
G|--------------------------12-11-7-8-------|
D|-2-2-2-2-2-2-2-2-2-2-2-2------------------|
A|-2-2-2-2-2-2-2-2-2-2-2-2------------------|
E|-0-0-0-0-0-0-0-0-0-0-0-0------------------|
Time after time I lose again

E|---------------------------------|
B|---------------------------------|
G|---------------------------------|
D|-7-7-7-7-7-7-7-7--9-9-9-9--9-4-2-|
A|-7-7-7-7-7-7-7-7--9-9-9-9--9-4-2-|
E|-5-5-5-5-5-5-5-5--7-7-7-7--7-2-0-|
Night after night I wake up shaking cause my world is breaking

E|------------------------------------------|
B|------------------------------------------|
G|--------------------------12-11-7-8-------|
D|-2-2-2-2-2-2-2-2-2-2-2-2------------------|
A|-2-2-2-2-2-2-2-2-2-2-2-2------------------|
E|-0-0-0-0-0-0-0-0-0-0-0-0------------------|
I¡¯m fool enough to fail again

E|---------------------------------|
B|---------------------------------|
G|---------------------------------|
D|-7-7-7-7-7-7-7-7--9-9-9-9--9-4-2-|
A|-7-7-7-7-7-7-7-7--9-9-9-9--9-4-2-|
E|-5-5-5-5-5-5-5-5--7-7-7-7--7-2-0-|
Night after night I wake up crying cause I feel like dying

With distortion
E|----------------------------------------------|
B|----------------------------------------------|
G|----------------------------------------------|
D|-2-2-5p2-2-5p4-2-2----------------------------|x2
A|-----------------------2-2-5^p2-2-5-2-2-2-6-6-|
E|----------------------------------------------|

Verse 2:
E|-----------------------------------------------------------------|
B|-----------------------------------------------------------------|
G|-2-2-2-2-2-2-2-2-----------------4-4-4-4-4-4-4-4-2-2-2-2-2-2-2-2-|
D|-----------------2-2-2-2-2-2-2-2---------------------------------|X2
A|-----------------------------------------------------------------|
E|-----------------------------------------------------------------|


E|-------------------|
B|-5---4---4---5-----|
G|-------------------|
D|-------------------|X2
A|-------------------|
E|-------------------|

Then:
E|-----------------------------------------|
B|-----------------------------------------|
G|------------------5-5-5-5--4-4-4-4-------|
D|-2-2-2-2-2-2-2-2--x-x-x-x--x-x-x-x--2-2--|
A|-2-2-2-2-2-2-2-2--3-3-3-3--2-2-2-2--2-2--|
E|-0-0-0-0-0-0-0-0--------------------0-0--|
Like an angel you came...every time when I prayed

E|-----------------------------------------|
B|-----------------------------------------|
G|------------------5-5-5-5--4-4-4-4-------|
D|-2-2-2-2-2-2-2-2--x-x-x-x--x-x-x-x--2-2--|
A|-2-2-2-2-2-2-2-2--3-3-3-3--2-2-2-2--2-2--|
E|-0-0-0-0-0-0-0-0--------------------0-0--|
Guardian of my dreams...watching me when I sleep

E|-----------------------------------------|
B|-----------------------------------------|
G|------------------5-5-5-5--4-4-4-4-------|
D|-2-2-2-2-2-2-2-2--x-x-x-x--x-x-x-x--2-2--|
A|-2-2-2-2-2-2-2-2--3-3-3-3--2-2-2-2--2-2--|
E|-0-0-0-0-0-0-0-0--------------------0-0--|
Like an angel you came...every time when I screamed

E|-------------------------|
B|-------------------------|
G|-------------------------|
D|-2-2-2-2-2-2-2-2-2-2-2-2-|
A|-2-2-2-2-2-2-2-2-2-2-2-2-|
E|-0-0-0-0-0-0-0-0-0-0-0-0-|

Chorus:
E|------------------------------------------|
B|------------------------------------------|
G|--------------------------12-11-7-8-------|
D|-2-2-2-2-2-2-2-2-2-2-2-2------------------|
A|-2-2-2-2-2-2-2-2-2-2-2-2------------------|
E|-0-0-0-0-0-0-0-0-0-0-0-0------------------|
Time after time I lose again

E|---------------------------------|
B|---------------------------------|
G|---------------------------------|
D|-7-7-7-7-7-7-7-7--9-9-9-9--9-4-2-|
A|-7-7-7-7-7-7-7-7--9-9-9-9--9-4-2-|
E|-5-5-5-5-5-5-5-5--7-7-7-7--7-2-0-|
Night after night I wake up shaking cause my world is breaking

E|------------------------------------------|
B|------------------------------------------|
G|--------------------------12-11-7-8-------|
D|-2-2-2-2-2-2-2-2-2-2-2-2------------------|
A|-2-2-2-2-2-2-2-2-2-2-2-2------------------|
E|-0-0-0-0-0-0-0-0-0-0-0-0------------------|
I¡¯m fool enough to fail again

E|---------------------------------|
B|---------------------------------|
G|---------------------------------|
D|-7-7-7-7-7-7-7-7--9-9-9-9--9-4-2-|
A|-7-7-7-7-7-7-7-7--9-9-9-9--9-4-2-|
E|-5-5-5-5-5-5-5-5--7-7-7-7--7-2-0-|
Night after night I wake up crying cause I feel like dying

Bridge
E|--------------------|
B|--------------------|
G|--------------------|
D|-2---4b-------------|
A|---2--------2----4b-|
E|---------------2----| x2

E|----------------------------------------------|
B|----------------------------------------------|
G|----------------------------------------------|
D|-2-2-5p2-2-5p4-2-2----------------------------|
A|-----------------------2-2-5^p2-2-5-2-2-2-6-6-|
E|----------------------------------------------|

Then:
E|-------------------------------------------|
B|-------------------------------------------|
G|-------------------------------------------|
D|-2-2-5p2-5p4-2-2-------------------9--4--0-|
A|------------------------2-2-5p2-2--9--4--2-|
E|-----------------------------------7--2--2-|

With distortion
E|----------------------------------------------|
B|----------------------------------------------|
G|----------------------------------------------|
D|-2-2-5p2-2-5p4-2-2----------------------------|x2
A|-----------------------2-2-5^p2-2-5-2-2-2-6-6-|
E|----------------------------------------------|

Chorus:x2

E|------------------------------------------|
B|------------------------------------------|
G|--------------------------12-11-7-8-------|
D|-2-2-2-2-2-2-2-2-2-2-2-2------------------|
A|-2-2-2-2-2-2-2-2-2-2-2-2------------------|
E|-0-0-0-0-0-0-0-0-0-0-0-0------------------|
Time after time I lose again

E|---------------------------------|
B|---------------------------------|
G|---------------------------------|
D|-7-7-7-7-7-7-7-7--9-9-9-9--9-4-2-|
A|-7-7-7-7-7-7-7-7--9-9-9-9--9-4-2-|
E|-5-5-5-5-5-5-5-5--7-7-7-7--7-2-0-|
Night after night I wake up shaking cause my world is breaking

E|------------------------------------------|
B|------------------------------------------|
G|--------------------------12-11-7-8-------|
D|-2-2-2-2-2-2-2-2-2-2-2-2------------------|
A|-2-2-2-2-2-2-2-2-2-2-2-2------------------|
E|-0-0-0-0-0-0-0-0-0-0-0-0------------------|
I¡¯m fool enough to fail again

E|---------------------------------|
B|---------------------------------|
G|---------------------------------|
D|-7-7-7-7-7-7-7-7--9-9-9-9--9-4-2-|
A|-7-7-7-7-7-7-7-7--9-9-9-9--9-4-2-|
E|-5-5-5-5-5-5-5-5--7-7-7-7--7-2-0-|
Night after night I wake up crying cause I feel like dyingx2

Outro:
E|------------|
B|------------|
G|------------|
D|------------|
A|----2----4b-|
E|-------2----|

<.......................................................3.NO FEAR..........................................................>

|---------------------------------------------------|
|---------------------------------------------------| 2x
|--------------------------4-4--4-4--4--------------|
|6-6--6-6--6--2-2--2-2--2--4-4--4-4--4--4-4--4-4--4-|
|6-6--6-6--6--2-2--2-2--2--2-2--2-2--2--4-4--4-4--4-|
|4-4--4-4--4--0-0--0-0--0--2-2--2-2--2--2-2--2-2--2-|

|-------------|
|-------------|
|-------------|
|-2~~---------|
|-2~~---------|
|-0~~-7-4-7-7-|


Verse

|------------------------------------|   |-------| |--------|
|------------------------------------|   |-9-----| |--------|
|------8---4---8---9-----------------|   |---8-7~| |--------|
|-6----8---4---8---9---8--9-----6----|   |-------| |--------|
|-6----6---2---6---7---8--9-----6----|   |-------| |--------|
|-4--------------------6--7-----4----|   |-------| |--7-4-7-|
Girl, you live your life...

|------------------------------------|   |--------|
|------------------------------------|   |--------|
|------8---4---8---9-----------------|   |--------|
|-6----8---4---8---9---8--9-----6----|   |--------|
|-6----6---2---6---7---8--9-----6----|   |--------|
|-4--------------------6--7-----4----|   |--7-4-7-|
Girl, your...


Chorus:

|---------------------------------------------------|
|---------------------------------------------------| x2
|--------------------------4-4--4-4--4--------------|
|6-6--6-6--6--2-2--2-2--2--4-4--4-4--4--4-4--4-4--4-|
|6-6--6-6--6--2-2--2-2--2--2-2--2-2--2--4-4--4-4--4-|
|4-4--4-4--4--0-0--0-0--0--2-2--2-2--2--2-2--2-2--2-|
No fear...

|-------------|
|-------------|
|-------------|
|-2~~---------|
|-2~~---------|
|-0~~-7-4-7-7-|

Verse 2:

|------------------------------------|   |-------| |--------|
|------------------------------------|   |-9-----| |--------|
|------8---4---8---9-----------------|   |---8-7~| |--------|
|-6----8---4---8---9---8--9-----6----|   |-------| |--------|
|-6----6---2---6---7---8--9-----6----|   |-------| |--------|
|-4--------------------6--7-----4----|   |-------| |--7-4-7-|
Girl...

|------------------------------------|   |--------|
|------------------------------------|   |--------|
|------8---4---8---9-----------------|   |--------|
|-6----8---4---8---9---8--9-----6----|   |--------|
|-6----6---2---6---7---8--9-----6----|   |--------|
|-4--------------------6--7-----4----|   |--7-4-7-|
Girl, close...

Chorus:

|---------------------------------------------------|
|---------------------------------------------------| x2
|--------------------------4-4--4-4--4--------------|
|6-6--6-6--6--2-2--2-2--2--4-4--4-4--4--4-4--4-4--4-|
|6-6--6-6--6--2-2--2-2--2--2-2--2-2--2--4-4--4-4--4-|
|4-4--4-4--4--0-0--0-0--0--2-2--2-2--2--2-2--2-2--2-|
No fear...

|-------------|
|-------------|
|-------------|
|-2~~---------|
|-2~~---------|
|-0~~-7-4-7-7-|

Bridge:

|----------------|
|----------------| 2x
|--------4-4-----|
|6-6-2-2-4-4-4-4-|
|6-6-2-2-2-2-4-4-|
|4-4-0-0-2-2-2-2-|
Ahhh..

Solo:

e|----------------------------------------|
H|----------------------------------------|
G|1~~-3~~---------------------------------|
D|-------4-3-4~~-----~3-3-3-~~~~3-3-3--1~~|
A|----------------------------------------|
E|----------------------------------------|

e|18-20-21/--1---18-20-21/--2---18-20-21/-----------------|
H|----------------------------------------6--6-6-6--4~~~~~|
G|--------------------------------------------------------|
D|--------------------------------------------------------|
A|--------------------------------------------------------|
E|--------------------------------------------------------|

Last chorus:
|---------------------------------------|
|---------------------------------------|
|-------------------6-6-6-6-6-----------|
|-8-8-8-8-4-4-4-4-4-6-6-6-6-6-6-6-6-6-6-|
|-8-8-8-8-4-4-4-4-4-4-4-4-4-4-6-6-6-6-6-|
|-6-6-6-6-2-2-2-2-2-4-4-4-4-4-4-4-4-4-4-|
 No fear....

|---------------------------------------|
|---------------------------------------|
|-------------------6-6-6-6-6-----------|
|-8-8-8-8-4-4-4-4-4-6-6-6-6-6-6-6-6-6-6-|
|-8-8-8-8-4-4-4-4-4-4-4-4-4-4-6-6-6-6-6-|
|-6-6-6-6-2-2-2-2-2-4-4-4-4-4-4-4-4-4-4-|


|---------------------------------------|
|---------------------------------------|x4
|-------------------6-6-6-6-6-----------|
|-8-8-8-8-4-4-4-4-4-6-6-6-6-6-6-6-6-6-6-|
|-8-8-8-8-4-4-4-4-4-4-4-4-4-4-6-6-6-6-6-|
|-6-6-6-6-2-2-2-2-2-4-4-4-4-4-4-4-4-4-4-|
 No fear...

<.................................................4.LUCIFER'S ANGEL.......................................................>

This tab is not from me but is right, I correct some mistakes from this tab

Intro:
E|-----------------------------------------------------------------------------|
B|-----------------------------------------------------------------------------|
G|-----------------------------------------------------------------------------|
D|-----------------------------------------------------------------------------|
A|-2-2--2-5-4-5-2-2-5-4-5--0-0--0-5-4-5-0-0-5-4-5/-7-7--7-10-9-10-7-7-10-9-10/-|
E|-----------------------------------------------------------------------------|

E|------------------------|
B|------------------------|
G|------------------------|
D|------------------------|
A|-2-2--2-5-4-5-2-2-5-4-5-|
E|------------------------|

Verse:
E|----------------------------------------------------------------|
B|----------------------------------------------------------------|
G|----------------------------------------------------------------|
D|----------------------------------------------------------------|
A|-9-9--9-9-9-9--12-12--12-12-12-12--7-7--7-7-7-7-7--9-9--9-9-9-9-|
E|-7-7--7-7-7-7--10-10--10-10-10-10--5-5--5-5-5-5-5--7-7--7-7-7-7-|
..........................P.M......................................

E|--------------------------------------------------------------|
B|--------------------------------------------------------------|
G|--------------------------------------------------------------|
D|--------------------------------------------------------------|
A|-9-9--9-9-9-9--12-12--12-12-12-12--1111-11111111-9-9--9-9-9-9-|
E|-7-7--7-7-7-7--10-10--10-10-10-10--9-9--9-9-9-9--7-7--7-7-7-7-|
..........................P.M....................................

E|----------------------------------------------------------------|
B|----------------------------------------------------------------|
G|----------------------------------------------------------------|
D|----------------------------------------------------------------|
A|-9-9--9-9-9-9--12-12--12-12-12-12--7-7--7-7-7-7-7--9-9--9-9-9-9-|
E|-7-7--7-7-7-7--10-10--10-10-10-10--5-5--5-5-5-5-5--7-7--7-7-7-7-|
.........................P.M.......................................

E|---------------------------------------------------------------|
B|---------------------------------------------------------------|
G|---------------------------------------------------------------|
D|---------------------------------------------------------------|
A|-9-9--9-9-9-9--12-12--12-12-12-12--1111-11111111-1111-11111111-|
E|-7-7--7-7-7-7--10-10--10-10-10-10--9-9--9-9-9-9--9-9--9-9-9-9--|
.........................P.M.....................................

Prechorus:
E|--------|
B|--------|
G|--------|
D|-4---12-|
A|-4---12-|
E|-2---10-|

Chorus:
E|------------|
B|------------|
G|------------|
D|-9--4-2-5-7-|
A|-9--4-2-5-7-|x2
E|-7--2-0-3-5-|

Then:x2
E|-----------------------------------------------------------------------------|
B|-----------------------------------------------------------------------------|
G|-----------------------------------------------------------------------------|
D|-----------------------------------------------------------------------------|
A|-2-2--2-5-4-5-2-2-5-4-5--0-0--0-5-4-5-0-0-5-4-5/-7-7--7-10-9-10-7-7-10-9-10/-|
E|-----------------------------------------------------------------------------|

E|------------------------|
B|------------------------|
G|------------------------|
D|------------------------|
A|-2-2--2-5-4-5-2-2-5-4-5-|
E|------------------------|

Verse 2:x2
E|----------------------------------------------------------------|
B|----------------------------------------------------------------|
G|----------------------------------------------------------------|
D|----------------------------------------------------------------|
A|-9-9--9-9-9-9--12-12--12-12-12-12--7-7--7-7-7-7-7--9-9--9-9-9-9-|
E|-7-7--7-7-7-7--10-10--10-10-10-10--5-5--5-5-5-5-5--7-7--7-7-7-7-|
..........................P.M......................................

E|--------------------------------------------------------------|
B|--------------------------------------------------------------|
G|--------------------------------------------------------------|
D|--------------------------------------------------------------|
A|-9-9--9-9-9-9--12-12--12-12-12-12--1111-11111111-9-9--9-9-9-9-|
E|-7-7--7-7-7-7--10-10--10-10-10-10--9-9--9-9-9-9--7-7--7-7-7-7-|
..........................P.M....................................

E|----------------------------------------------------------------|
B|----------------------------------------------------------------|
G|----------------------------------------------------------------|
D|----------------------------------------------------------------|
A|-9-9--9-9-9-9--12-12--12-12-12-12--7-7--7-7-7-7-7--9-9--9-9-9-9-|
E|-7-7--7-7-7-7--10-10--10-10-10-10--5-5--5-5-5-5-5--7-7--7-7-7-7-|
.........................P.M.......................................

E|---------------------------------------------------------------|
B|---------------------------------------------------------------|
G|---------------------------------------------------------------|
D|---------------------------------------------------------------|
A|-9-9--9-9-9-9--12-12--12-12-12-12--1111-11111111-1111-11111111-|
E|-7-7--7-7-7-7--10-10--10-10-10-10--9-9--9-9-9-9--9-9--9-9-9-9--|
.........................P.M.....................................

Prechorus:
E|--------|
B|--------|
G|--------|
D|-4---12-|
A|-4---12-|
E|-2---10-|

Prechorus:
E|--------|
B|--------|
G|--------|
D|-4---12-|
A|-4---12-|
E|-2---10-|

Chorus:
E|------------|
B|------------|
G|------------|
D|-9--4-2-5-7-|
A|-9--4-2-5-7-|x2
E|-7--2-0-3-5-|

Then:
E|-----------------------------------------------------------------------------|
B|-----------------------------------------------------------------------------|
G|-----------------------------------------------------------------------------|
D|-----------------------------------------------------------------------------|
A|-2-2--2-5-4-5-2-2-5-4-5--0-0--0-5-4-5-0-0-5-4-5/-7-7--7-10-9-10-7-7-10-9-10/-|
E|-----------------------------------------------------------------------------|

E|------------------------|
B|------------------------|
G|------------------------|
D|------------------------|
A|-2-2--2-5-4-5-2-2-5-4-5-|
E|------------------------|


Bridge:
E|---------------|
B|---------------|
G|---------------|
D|-4--4-4--4-4-2-|
A|-4--4-4--4-4-2-|
E|-2--2-2--2-2-0-|

E|---|
B|---|
G|---|
D|-9-|
A|-9-|
E|-7-|

Chorus:
E|------------|
B|------------|
G|------------|
D|-9--4-2-5-7-|
A|-9--4-2-5-7-|x2
E|-7--2-0-3-5-|

End:
E|-----------------------------------------------------------------------------|
B|-----------------------------------------------------------------------------|
G|-----------------------------------------------------------------------------|
D|-----------------------------------------------------------------------------|
A|-2-2--2-5-4-5-2-2-5-4-5--0-0--0-5-4-5-0-0-5-4-5/-7-7--7-10-9-10-7-7-10-9-10/-|
E|-----------------------------------------------------------------------------|

E|------------------------|
B|------------------------|
G|------------------------|
D|------------------------|
A|-2-2-4-4-5-5-7h9p7-5--5-|
E|---------------------7--|

E|-----------------------------------------------------------------------------|
B|-----------------------------------------------------------------------------|
G|-----------------------------------------------------------------------------|
D|-----------------------------------------------------------------------------|
A|-2-2--2-5-4-5-2-2-5-4-5--0-0--0-5-4-5-0-0-5-4-5/-7-7--7-10-9-10-7-7-10-9-10/-|
E|-----------------------------------------------------------------------------|

E|------------------|
B|------------------|
G|------------------|
D|-9--9--9--9-9-7/5-|
A|------------------|
E|------------------|

E|-----------------------------------------------------------------------------|
B|-----------------------------------------------------------------------------|
G|-----------------------------------------------------------------------------|
D|-----------------------------------------------------------------------------|
A|-2-2--2-5-4-5-2-2-5-4-5--0-0--0-5-4-5-0-0-5-4-5/-7-7--7-10-9-10-7-7-10-9-10/-|
E|-----------------------------------------------------------------------------|

E|-------------------------|
B|-8-8-7-7-5-5-3-3-2-3-----|
G|-------------------------|
D|----------------------9/-|
A|----------------------9/-|
E|----------------------7/-|

<...................................................5.LAST GENERATION......................................................>

Intro:
E|--------------------------|
B|--------------------------|
G|---5-2---2--2-3-2---------|
D|-------2----------2p1p0---|x4
A|-3------------------------|
E|--------------------------|

Verse:
-------------------------------P.M.----------------------------------|
E|-------------------------------------------------------------------|
B|-------------------------------------------------------------------|
G|-------------------------------------------------------------------|
D|-------------------------------------------------------------------|x2
A|-3-3-3-3-3-3-3---------------6-6-6-6-6-6-6-6-----------------------|
E|---------------1-1-1-1-1-1-1-----------------6-6-6-6-6-6-6-6-6-----|
You stopped and left the car...

Prechorus:
E|----------------------|
B|----------------------|
G|-----5----------------|
D|--3--5----------3-5---|
A|--3-3-----------3-5---|
E|-1-------------1--3---|
You ran into...

Chorus:
E|------------------------------------|
B|------------------------------------|
G|-5-5-5-5-----------------8-8-8-8----|
D|-5-5-5-5-3-3-3-3-8-8-8-8-8-8-8-8----|x2
A|-3-3-3-3-3-3-3-3-8-8-8-8-6-6-6-6----|
E|---------1-1-1-1-6-6-6-6------------|
Rest in peace...

E|---------------------------------------------|
B|---------------------------------------------|
G|-5-5-5-5---------8-x-x-8-x-x-8-7-x-x-7-x-x-7-|
D|-5-5-5-5-3-3-3-3-8-x-x-8-x-x-8-7-x-x-7-x-x-7-|
A|-3-3-3-3-3-3-3-3-6-x-x-6-x-x-6-5-x-x-5-x-x-5-|
E|---------1-1-1-1-----------------------------|
Of the last generation..

Then:
E|--------------------------|
B|--------------------------|
G|---5-2---2--2-3-2---------|
D|-------2----------2p1p0---|x4
A|-3------------------------|
E|--------------------------|


Verse 2:
-------------------------------P.M.----------------------------------|
E|-------------------------------------------------------------------|
B|-------------------------------------------------------------------|
G|-------------------------------------------------------------------|
D|-------------------------------------------------------------------|x2
A|-3-3-3-3-3-3-3---------------6-6-6-6-6-6-6-6-----------------------|
E|---------------1-1-1-1-1-1-1-----------------6-6-6-6-6-6-6-6-6-----|
I've seen this in my dream...

Prechorus:
E|----------------------|
B|----------------------|
G|-----5----------------|
D|--3--5----------3-5---|
A|--3-3-----------3-5---|
E|-1-------------1--3---|
And those..

Chorus:
E|------------------------------------|
B|------------------------------------|
G|-5-5-5-5-----------------8-8-8-8----|
D|-5-5-5-5-3-3-3-3-8-8-8-8-8-8-8-8----|x2
A|-3-3-3-3-3-3-3-3-8-8-8-8-6-6-6-6----|
E|---------1-1-1-1-6-6-6-6------------|
Rest in peace..

E|---------------------------------------------|
B|---------------------------------------------|
G|-5-5-5-5---------8-x-x-8-x-x-8-7-x-x-7-x-x-7-|
D|-5-5-5-5-3-3-3-3-8-x-x-8-x-x-8-7-x-x-7-x-x-7-|
A|-3-3-3-3-3-3-3-3-6-x-x-6-x-x-6-5-x-x-5-x-x-5-|
E|---------1-1-1-1-----------------------------|
Of the last generation..

Then:
E|--------------------------|
B|--------------------------|
G|---5-2---2--2-3-2---------|
D|-------2----------2p1p0---|x4
A|-3------------------------|
E|--------------------------|

Solo:
E|-8-8-8-10-8-8-8-6--8-8-8-10--10-10-10-14-|
B|-----------------------------------------|
G|-----------------------------------------|
D|-----------------------------------------|x2
A|-----------------------------------------|
E|-----------------------------------------|

Then:
E|-------------|
B|-------------|
G|-5-5-5-5-5-5-|
D|-5-5-5-5-5-5-|x2
A|-3-3-3-3-3-3-|
E|-------------|

Chorus:
E|------------------------------------|
B|------------------------------------|
G|-5-5-5-5-----------------8-8-8-8----|
D|-5-5-5-5-3-3-3-3-8-8-8-8-8-8-8-8----|x4
A|-3-3-3-3-3-3-3-3-8-8-8-8-6-6-6-6----|
E|---------1-1-1-1-6-6-6-6------------|
Rest in peace..

E|---------------------------------------------|
B|---------------------------------------------|
G|-5-5-5-5---------8-x-x-8-x-x-8-7-x-x-7-x-x-7-|
D|-5-5-5-5-3-3-3-3-8-x-x-8-x-x-8-7-x-x-7-x-x-7-|
A|-3-3-3-3-3-3-3-3-6-x-x-6-x-x-6-5-x-x-5-x-x-5-|
E|---------1-1-1-1-----------------------------|
Of the last generation..

End:
E|-------|
B|-------|
G|-5~~~--|
D|-5~~~--|
A|-3~~~--|
E|-------|


<...................................................6.DEAD PROMISES......................................................>

I tabbed this song but my tab is wrong and I use the other version of the tab and I 
some mistakes...

Intro

E|----------------|
B|----------------|
G|----------------|
D|--4--4--4--4--2-|
A|--4--4--4--4--2-|x3
E|--2--2--2--2--0-|


After Verse:
E|----------------|
B|----------------|
G|----------------|
D|--4--4--4--4--2-|
A|--4--4--4--4--2-|x4
E|--2--2--2--2--0-|


Chorus:
E|-------------------------------------------------------------------------|
B|-------------------------------------------------------------------------|
G|-5-5-5-5-5-5-5-5-5-5-5-5-5-5-5-5-----------------------------------------|
D|-5-5-5-5-5-5-5-5-4-4-4-4-4-4-4-4-x-x-2-2-2-x-x-2-2-2-x-x-2-2-2-x-x-2-2-2-|
A|-3-3-3-3-3-3-3-3-3-3-3-3-3-3-3-3-x-x-2-2-2-x-x-2-2-2-x-x-2-2-2-x-x-2-2-2-|x2
E|---------------------------------x-x-0-0-0-x-x-0-0-0-x-x-0-0-0-x-x-0-0-0-|

E|-------------------|
B|-------------------|
G|-5~~---6~~---4-5-4-|
D|-5~~---6~~---4-5-4-|
A|-3~~---4~~---2-3-2-|
E|-------------------|

Verse 2:
E|----------------|
B|----------------|
G|----------------|
D|--4--4--4--4--2-|
A|--4--4--4--4--2-|x4
E|--2--2--2--2--0-|

Chorus:
E|-------------------------------------------------------------------------|
B|-------------------------------------------------------------------------|
G|-5-5-5-5-5-5-5-5-5-5-5-5-5-5-5-5-----------------------------------------|
D|-5-5-5-5-5-5-5-5-4-4-4-4-4-4-4-4-x-x-2-2-2-x-x-2-2-2-x-x-2-2-2-x-x-2-2-2-|
A|-3-3-3-3-3-3-3-3-3-3-3-3-3-3-3-3-x-x-2-2-2-x-x-2-2-2-x-x-2-2-2-x-x-2-2-2-|x2
E|---------------------------------x-x-0-0-0-x-x-0-0-0-x-x-0-0-0-x-x-0-0-0-|

E|-------------------|
B|-------------------|
G|-5~~---6~~---4-5-4-|
D|-5~~---6~~---4-5-4-|
A|-3~~---4~~---2-3-2-|
E|-------------------|

Bridge:(all the brigde with P.M.)
E|---------------------------|
B|---------------------------|
G|---------------------------|
D|---------------------------|
A|---------------------------|
E|---0--0--0--0--0--0--0--0--|x4

E|---------------------------|
B|---------------------------|
G|---------------------------|
D|---------------------------|
A|---3--3--3--3--3--3--3--3--|x2
E|---------------------------|

E|---------------------------|
B|---------------------------|
G|---------------------------|
D|---------------------------|
A|---------------------------|x2
E|---2--2--2--2--2--2--2--2--|

Then:
E|------------------------------|
B|------------------------------|
G|------------------------------|
D|-x-x-2---x-x-2---x-x-2---4--5-|
A|-x-x-2---x-x-2---x-x-2---4--5-|x3
E|-x-x-0---x-x-0---x-x-0---2--3-|

Chorus:
E|-------------------------------------------------------------------------|
B|-------------------------------------------------------------------------|
G|-5-5-5-5-5-5-5-5-5-5-5-5-5-5-5-5-----------------------------------------|
D|-5-5-5-5-5-5-5-5-4-4-4-4-4-4-4-4-x-x-2-2-2-x-x-2-2-2-x-x-2-2-2-x-x-2-2-2-|
A|-3-3-3-3-3-3-3-3-3-3-3-3-3-3-3-3-x-x-2-2-2-x-x-2-2-2-x-x-2-2-2-x-x-2-2-2-|x2
E|---------------------------------x-x-0-0-0-x-x-0-0-0-x-x-0-0-0-x-x-0-0-0-|

E|-------------------|
B|-------------------|
G|-5~~---6~~---4-5-4-|
D|-5~~---6~~---4-5-4-|
A|-3~~---4~~---2-3-2-|
E|-------------------|

End:
E|-----------------|
B|-----------------|
G|--------4-5-4~---|
D|--7--2--4-5-4~---|
A|--7--2--2-3-2~---|
E|--5--0-----------|


<...................................................7.IMMORTAL......................................................>

This tab is 100% correct

Intro:
........................P.M................................
E|--------------------------------------------------------|
B|--------------------------------------------------------|
G|--------------------------------------------------------|
D|-----------------------------0-0-0-0------------0-------|
A|-------1-1-x-x-4-4-4-4-3-1------------3-3-3-1-3---3-1---|
E|-3-3-0---------------------3----------------------------|

E|------------------|
B|------------------|
G|------------------|
D|------------7-5-3-|
A|-------1-1--5-3-1-|
E|-3-3-0------------|

Then:
E|--------------------------------------------------------|
B|--------------------------------------------------------|
G|--------------------------------------------------------|
D|-----------------------------0-0-0-0------------0-------|
A|-------1-1-x-x-4-4-4-4-3-1------------3-3-3-1-3---3-1---|
E|-3-3-0---------------------3----------------------------|

Verse:
....................................P.M......................................
E|---------------------------------------------------------------------------|
B|-----10-----10-----11-----10-----10----------------------------------------|
G|-7-7----7-7----7-7----7-7----7-7----7------10-----10---------12-----12-----|
D|---------------------------------------8-8----8-8----8-8-8-8----8-8----8-8-|
A|---------------------------------------------------------------------------|
E|---------------------------------------------------------------------------|

Prechorus:
E|-----------------------------|
B|-----------------------------|
G|-----------------------------|
D|-5-5-7^-5-5-7^-7-7-7^-7-7-7^-|
A|-5-5----5-5----7-7----7-7----|
E|-3-3----3-3----5-5----5-5----|

Then:
................................................P.M.......................................
E|----------------------------------------------------------------------------------------|
B|----------------------------------------------------------------------------------------|
G|--------------------------------------------------7-x-7-x-7/9-x-x-9-x-x-9/10-x-10-x-10--|
D|-5-x-5-x-5/7-x-7-x-7/8-x-8-x-8-8-x-8-x-8/10-10-10-7-x-7-x-7/9-x-x-9-x-x-9/10-x-10-x-10--|
A|-5-x-5-x-5/7-x-7-x-7/8-x-8-x-8-8-x-8-x-8/10-10-10-5-x-5-x-5/7-x-x-7-x-x-7/8--x-8--x-8---|
E|-3-x-3-x-3/5-x-5-x-5/6-x-6-x-6-6-x-6-x-6/8-x-8-x-8-0-0-0-0-0-0-0-0-0-0-0---0--0---------|


Chorus:
E|---------------------------------------------------------------|
B|---------------------------------------------------------------|
G|---------------------------------------------------------------|
D|-5-5-5--5-5-5--2-2-2--2-2-2--3-3-3--3-3-3--3-3-3--2-2-2--3-3-3-|
A|-5-5-5--5-5-5--2-2-2--2-2-2--3-3-3--3-3-3--3-3-3--2-2-2--3-3-3-|
E|-3-3-3--3-3-3--0-0-0--0-0-0--1-1-1--1-1-1--1-1-1--0-0-0--1-1-1-|

Then:
E|--------------------------------------------------------|
B|--------------------------------------------------------|
G|--------------------------------------------------------|
D|-----------------------------0-0-0-0------------0-------|
A|-------1-1-x-x-4-4-4-4-3-1------------3-3-3-1-3---3-1---|x2
E|-3-3-0---------------------3----------------------------|

Verse 2:
....................................P.M......................................
E|---------------------------------------------------------------------------|
B|-----10-----10-----11-----10-----10----------------------------------------|
G|-7-7----7-7----7-7----7-7----7-7----7------10-----10---------12-----12-----|
D|---------------------------------------8-8----8-8----8-8-8-8----8-8----8-8-|
A|---------------------------------------------------------------------------|x2
E|---------------------------------------------------------------------------|

Prechorus:
E|-----------------------------|
B|-----------------------------|
G|-----------------------------|
D|-5-5-7^-5-5-7^-7-7-7^-7-7-7^-|
A|-5-5----5-5----7-7----7-7----|
E|-3-3----3-3----5-5----5-5----|

Then:
................................................P.M.......................................
E|----------------------------------------------------------------------------------------|
B|----------------------------------------------------------------------------------------|
G|--------------------------------------------------7-x-7-x-7/9-x-x-9-x-x-9/10-x-10-x-10--|
D|-5-x-5-x-5/7-x-7-x-7/8-x-8-x-8-8-x-8-x-8/10-10-10-7-x-7-x-7/9-x-x-9-x-x-9/10-x-10-x-10--|
A|-5-x-5-x-5/7-x-7-x-7/8-x-8-x-8-8-x-8-x-8/10-10-10-5-x-5-x-5/7-x-x-7-x-x-7/8--x-8--x-8---|
E|-3-x-3-x-3/5-x-5-x-5/6-x-6-x-6-6-x-6-x-6/8-x-8-x-8-0-0-0-0-0-0-0-0-0-0-0---0--0---------|

Chorus:
E|---------------------------------------------------------------|
B|---------------------------------------------------------------|
G|---------------------------------------------------------------|
D|-5-5-5--5-5-5--2-2-2--2-2-2--3-3-3--3-3-3--3-3-3--2-2-2--3-3-3-|
A|-5-5-5--5-5-5--2-2-2--2-2-2--3-3-3--3-3-3--3-3-3--2-2-2--3-3-3-|
E|-3-3-3--3-3-3--0-0-0--0-0-0--1-1-1--1-1-1--1-1-1--0-0-0--1-1-1-|

Bridge:
E|---------------------------------------------------------------------------------------------------|
B|---------------------------------------------------------------------------------------------------|
G|---------------------------------------------------------------------------------------------------|
D|---------------------------------------------------------------------------------------------------|
A|-5-5-5-5/7-7-7-7/8-8-8-8/10-10-10-10--3---3---3---3---3---3---3---3---5---5---5---5----8-10-12-13~-|
E|-3-3-3-3/5-5-5-5/6-6-6-6/8--8--8--8-----3---3---3---3---2---2---2---2---5---5---5---5--6-8--10-11~-|


E|----------------------------------------------------|
B|----------------------------------------------------|
G|----------------------------------------------------|
D|----------------------------------------------------|
A|-3---3---3---3---4---4---4---4---5---5---5---5---5~-|
E|---3---3---3---3---3---3---3---3---5---5---5---5----|

Solo:
E|---------------------9----------------------------------------|
B|-6/11-11-11-11-11-11---11-11-11-11-11--11-11p10-11p8-11p10p8b-|
G|--------------------------------------------------------------|
D|--------------------------------------------------------------|
A|--------------------------------------------------------------|
E|--------------------------------------------------------------|

E|--------5-3-3-3-3-5-----------------|
B|------------------------------------|
G|-3/5-6b--------------8p6p5--8p6h5p3-|
D|------------------------------------|
A|------------------------------------|
E|------------------------------------|

E|-----------------------------------------------------------------|
B|-------------------------------------------4---------------------|
G|-3-6-6-6-5p3-5-3-5-5-5-5-6h8-6h8p6-5-3-5-6---6-6-5-3-5h6p5-3p1-3-|
D|-----------------------------------------------------------------|
A|-----------------------------------------------------------------|
E|-----------------------------------------------------------------|

Then: (acoustic)
E|---------------------------------|
B|-----3-----3---------4-----4-----|
G|---3---3-----3-----5---5-----5---|
D|-5-------5-----5-5-------5-----5-|
A|---------------------------------|x2
E|---------------------------------|

E|-----------------------------------------------------------------|
B|-----3-----3---------3-----3---------4-----4---------3-----3-----|
G|---3---3-----3-----3---3-----3-----5---5-----5-----3---3-----3---|
D|-5-------5-----5-5-------5-----5-5-------5-----5-5-------3-----5-|
A|-----------------------------------------------------------------|
E|-----------------------------------------------------------------|

Chorus:
E|---------------------------------------------------------------|
B|---------------------------------------------------------------|
G|---------------------------------------------------------------|
D|-5-5-5--5-5-5--2-2-2--2-2-2--3-3-3--3-3-3--3-3-3--2-2-2--3-3-3-|
A|-5-5-5--5-5-5--2-2-2--2-2-2--3-3-3--3-3-3--3-3-3--2-2-2--3-3-3-|
E|-3-3-3--3-3-3--0-0-0--0-0-0--1-1-1--1-1-1--1-1-1--0-0-0--1-1-1-|

Then:
................................................P.M.......................................
E|----------------------------------------------------------------------------------------|
B|----------------------------------------------------------------------------------------|
G|--------------------------------------------------7-x-7-x-7/9-x-x-9-x-x-9/10-x-10-x-10--|
D|-5-x-5-x-5/7-x-7-x-7/8-x-8-x-8-8-x-8-x-8/10-10-10-7-x-7-x-7/9-x-x-9-x-x-9/10-x-10-x-10--|
A|-5-x-5-x-5/7-x-7-x-7/8-x-8-x-8-8-x-8-x-8/10-10-10-5-x-5-x-5/7-x-x-7-x-x-7/8--x-8--x-8---|
E|-3-x-3-x-3/5-x-5-x-5/6-x-6-x-6-6-x-6-x-6/8-x-8-x-8-0-0-0-0-0-0-0-0-0-0-0---0--0---------|

Chorus:
E|---------------------------------------------------------------|
B|---------------------------------------------------------------|
G|---------------------------------------------------------------|
D|-5-5-5--5-5-5--2-2-2--2-2-2--3-3-3--3-3-3--3-3-3--2-2-2--3-3-3-|
A|-5-5-5--5-5-5--2-2-2--2-2-2--3-3-3--3-3-3--3-3-3--2-2-2--3-3-3-|
E|-3-3-3--3-3-3--0-0-0--0-0-0--1-1-1--1-1-1--1-1-1--0-0-0--1-1-1-|

Outro:
E|--------------------------------------------------------------------|
B|--------------------------------------------------------------------|
G|--------------------------------------------------------------------|
D|-7-7-7-7-7-7-7-7--3-3-3-3-3-3-3-3--5-5-5-5-5-5-5-5--8-8-8-8-8-8-8-8-|
A|-7-7-7-7-7-7-7-7--3-3-3-3-3-3-3-3--5-5-5-5-5-5-5-5--8-8-8-8-8-8-8-8-|
E|-5-5-5-5-5-5-5-5--1-1-1-1-1-1-1-1--3-3-3-3-3-3-3-3--6-6-6-6-6-6-6-6-|

E|---------------------------------------------------------|
B|---------------------------------------------------------|
G|---------------------------------------------------------|
D|-----------------------------0-0-0-0------------0--------|
A|-------1-1-x-x-4-4-4-4-3-1------------3-3-3-1-3---3-1----|x2
E|-3-3-0---------------------3--------------------------3~-|

End:(acoustic)
E|-------15-------15-------------13------13-------|
B|----11----11-------11-------11----11------11----|
G|-12----------12-------12-12---------12-------12-|
D|------------------------------------------------|
A|------------------------------------------------|
E|------------------------------------------------|

E|-------13-------13-------------11------11-------|
B|----11----11-------11-------11----11------11----|
G|-10----------10-------10-10----------10------10-|
D|------------------------------------------------|
A|------------------------------------------------|
E|------------------------------------------------|

E|-------10-------10-------------10-------11-------|
B|----11----11-------11-------11----11-------11----|
G|-10----------10-------10-10----------10-------10-|
D|-------------------------------------------------|
A|-------------------------------------------------|
E|-------------------------------------------------|

E|-------8-------8------------8------8------|
B|----11---11------11------10---10-----10---|
G|-10---------10------10-7---------7------7-|
D|------------------------------------------|
A|------------------------------------------|
E|------------------------------------------|

<...................................................8.SAIL AWAY......................................................>

Another right tab

Intro:x2
E|--------------7--------|
B|------10----------10---|
G|----9----9------9----9-|
D|-10--------10----------|
A|-----------------------|
E|-----------------------|

E|--------------------|
B|-----8-----10---8---|
G|---9---9------9---9-|
D|-9-------9----------|
A|--------------------|
E|--------------------|

Verse:x4
E|--------------7--------|
B|------10----------10---|
G|----9----9------9----9-|
D|-10--------10----------|
A|-----------------------|
E|-----------------------|

E|--------------------|
B|-----8-----10---8---|
G|---9---9------9---9-|
D|-9-------9----------|
A|--------------------|
E|--------------------|

Prechorus:
E|-2----2--|
B|-3----3--|
G|-2----2--|
D|-x----4--|
A|-x----x--|
E|-x----x--|

Chorus:
Em		D
I’ll sail away
  C			G
It’s time to leave
C	G	Am			D
Rainy days are yours to keep

Em		D
I’ll fade away
	C			G
The nigh is calling my name
C		G
You will stay
Am 		D
I’ll sail away

Verse 2:x4

E|--------------7--------|
B|------10----------10---|
G|----9----9------9----9-|
D|-10--------10----------|
A|-----------------------|
E|-----------------------|

E|--------------------|
B|-----8-----10---8---|
G|---9---9------9---9-|
D|-9-------9----------|
A|--------------------|
E|--------------------|

E|--------------------|
B|-8/5----------------|
G|--------------------|
D|--------------------|
A|--------------------|
E|--------------------|

Prechorus:
E|-------------------------|
B|---3h5-5/7-7-7/8-8/10-10-|
G|-7-----------------------|
D|-------------------------|
A|-------------------------|
E|-------------------------|


Chorus:
Em		D
I’ll sail away
  C			G
It’s time to leave
C	G	Am			D
Rainy days are yours to keep

Em		D
I’ll fade away
	C			G
The nigh is calling my name
C		G
You will stay
Am 		D
I’ll sail away

Bridge:

       “No reason to” (No electric guitar for this part)
Em x 8

Em            Am              F#
No reason to lie no need to pretend
                 Bm                 C
I’m grateful to die, to live once again
                Am                    F#
I’m fearless to fly and reach for the end
                  C
And reach for the end

E|--------------|
B|--------------|
G|--------------|
D|-4h5-4--------|
A|-------7-6----|
E|--------------|

Solo:
E|----------------------------------------------------------------|
B|----------------------------------------------------------------|
G|-11-11h12----11h12-11------------------------------------11-12--|
D|----------12----------12--14--14-14--12--12-12-----12-14--------|
A|------------------------------------------------15--------------|
E|----------------------------------------------------------------|

E|----------------------------------------------------------------|
B|-------------15-13----12h13-12----------------------------------|
G|-15-15-16-11-------------------12-------------------------------|
D|-------------------12-------------11h12-------------------------|
A|----------------------------------------15-14-15-14-12----------|
E|-------------------------------------------------------15-14-12-|

Sail Awaaaaaaaaay
C       D        D#

Outro:
F#m	E
I’ll sail away
D			A
It’s time to leave
D	A 	Bm		E
Rainy days are yours to keep

	F#m	E
I’ll fade away
	D			A
The nigh is calling my name
D		A
You will stay
Bm		E
I’ll sail away

	F#m	E	D	A
Sail away
D		    A			Bm	E
  The night is calling my name
	F#m	E	D	A
Sail away
D	A	Bm       	E

End:
F#m~

<...............................................9.KEEP YOUR HEART BROKEN....................................................>


Intro

E-------------------------|
B-------------------------|
G--------------------6----|
D---4---6-7--4-7---4------|
A-4---4-----4----4--------|
E-------------------------|x 8

Verse Enfolding your love...

E-9------9----9---|
B---10-----10---9-|
G-----------------|
D-----------------|
A-----------------|
E-----------------| slow

Verse continued

E-------------------------------------  -----------------------------------|
B-------------------------------------  -----------------------------------|
G----------------------------4-6------  -4-4-4-4-4-4-4-4--6-6-6-6-6-6-6-6--|
D-4-4-4-4--6-6-6-6--7-7-7-7--4-6------  -4-4-4-4-4-4-4-4--6-6-6-6-6-6-6-6--|
A-4-4-4-4--6-6-6-6--7-7-7-7--2-4------  -2-2-2-2-2-2-2-2--4-4-4-4-4-4-4-4--|
E-2-2-2-2--4-4-4-4--5-5-5-5-----------X3-----------------------------------|

Prechorus:

|-----------|
|-----------|
|-----------|
|-(13)-(13)-|x3
|-(13)-(13)-|
|-(13)-(13)-|

Chorus My love will grow black..

E----------------------------------------------------------|
B----------------------------------------------------------|
G----------------------------------------6-6-6-6-6-6--4-4--|
D-7-7-7-7-7-7--2-2-2-2-2-2--4-4-4-4-4-4--6-6-6-6-6-6--4-4--|
A-7-7-7-7-7-7--2-2-2-2-2-2--4-4-4-4-4-4--4-4-4-4-4-4--2-2--|
E-5-5-5-5-5-5--0-0-0-0-0-0--2-2-2-2-2-2--------------------| X 2

E-------------------------|
B-------------------------|
G--------------------6----|
D---4---6-7--4-7---4------|
A-4---4-----4----4--------|
E-------------------------|x 2


Verse2

E-9------9----9---|
B---10-----10---9-|
G-----------------|
D-----------------|
A-----------------|
E-----------------| slow

Verse 2 continued

E-------------------------------------  -----------------------------------|
B-------------------------------------  -----------------------------------|
G----------------------------6-6-6-6--  -4-4-4-4-4-4-4-4--6-6-6-6-6-6-6-6--|
D-4-4-4-4--6-6-6-6--7-7-7-7--6-6-6-6--  -4-4-4-4-4-4-4-4--6-6-6-6-6-6-6-6--|
A-4-4-4-4--6-6-6-6--7-7-7-7--4-4-4-4--  -2-2-2-2-2-2-2-2--4-4-4-4-4-4-4-4--|
E-2-2-2-2--4-4-4-4--5-5-5-5-----------X3-----------------------------------|

Chorus My love will grow black..

E----------------------------------------------------------|
B----------------------------------------------------------|
G----------------------------------------6-6-6-6-6-6--4-4--|
D-7-7-7-7-7-7--2-2-2-2-2-2--4-4-4-4-4-4--6-6-6-6-6-6--4-4--|
A-7-7-7-7-7-7--2-2-2-2-2-2--4-4-4-4-4-4--4-4-4-4-4-4--2-2--|
E-5-5-5-5-5-5--0-0-0-0-0-0--2-2-2-2-2-2--------------------| X 2

E-------------------------|
B-------------------------|
G--------------------6----|
D---4---6-7--4-7---4------|
A-4---4-----4----4--------|
E-------------------------|x 4


Interlude: Broken broken...

E----------|
B----------|
G----------|
D-4--4--4--|
A-4--4--4--|
E-2--2--2--|X4


Chorus My love will grow black..

E----------------------------------------------------------|
B----------------------------------------------------------|
G----------------------------------------6-6-6-6-6-6--4-4--|
D-7-7-7-7-7-7--2-2-2-2-2-2--4-4-4-4-4-4--6-6-6-6-6-6--4-4--|
A-7-7-7-7-7-7--2-2-2-2-2-2--4-4-4-4-4-4--4-4-4-4-4-4--2-2--|
E-5-5-5-5-5-5--0-0-0-0-0-0--2-2-2-2-2-2--------------------| X 2

Forever and after my love!
E-------------------------|
B-------------------------|
G--------------------6----|
D---4---6-7--4-7---4------|
A-4---4-----4----4--------|
E-------------------------|x 4

E-------------------------|
B-------------------------|
G-------------------------|
D---4---6-7~--------------|
A-4---4-------------------|
E-------------------------|

<.................................................10.HEART OF MISERY........................................................>


Intro:
E|---------------------------|
B|---------------------------|
G|-7-7-7-6-4--4-9-9-7-7--7-6-|
D|-7-7-7-6-4--4-9-9-7-7--7-6-|x2
A|-5-5-5-4-2--2-7-7-5-5--5-4-|
E|---------------------------|

E|---------------------------|
B|---------------------------|
G|---------------------------|
D|---------------------------|x2
A|-7-7-7-6-4--4-9-9-7-7--7-6-|
E|-5-5-5-4-2--2-7-7-5-5--5-4-|

Verse:
..........................................P.M.......................................
E|---------------------------------------------------------------------------------|
B|---------------------------------------------------------------------------------|
G|---------------------------------------------------------------------------------|
D|-7-7-7-7-7--7-7-7--7--7-7-7-7----------------------------------------------------|x2
A|-5-5-5-5-5--5-5-5--5--5-5-5-5--5-5-5-5--5-5-5--5--5--5-5-5-5-5--5-5/7-7-7-7--7-7-|
E|-------------------------------3-3-3-3--3-3-3--3--3--3-3-3-3-3--3-3/5-5-5-5--5-5-|

Chorus:
E|-------------------------------------------|
B|-------------------------------------------|
D|-------------------------------------------|
G|-6-6-6------6-6-6------6-6-6-------2-2-4-4-|
A|-6-6-6-5-4--6-6-6-5-4--6-6-6-5-4-2-2-2-4-4-|x2
E|-4-4-4------4-4-4------4-4-4-------0-0-2-2-|

Then:
E|---------------------------|
B|---------------------------|
G|-7-7-7-6-4--4-9-9-7-7--7-6-|
D|-7-7-7-6-4--4-9-9-7-7--7-6-|x2
A|-5-5-5-4-2--2-7-7-5-5--5-4-|
E|---------------------------|

E|---------------------------|
B|---------------------------|
G|---------------------------|
D|---------------------------|x2
A|-7-7-7-6-4--4-9-9-7-7--7-6-|
E|-5-5-5-4-2--2-7-7-5-5--5-4-|

Verse 2:
..........................................P.M.......................................
E|---------------------------------------------------------------------------------|
B|---------------------------------------------------------------------------------|
G|---------------------------------------------------------------------------------|
D|-7-7-7-7-7--7-7-7--7--7-7-7-7----------------------------------------------------|x2
A|-5-5-5-5-5--5-5-5--5--5-5-5-5--5-5-5-5--5-5-5--5--5--5-5-5-5-5--5-5/7-7-7-7--7-7-|
E|-------------------------------3-3-3-3--3-3-3--3--3--3-3-3-3-3--3-3/5-5-5-5--5-5-|

Chorus:
E|-------------------------------------------|
B|-------------------------------------------|
D|-------------------------------------------|
G|-6-6-6------6-6-6------6-6-6-------2-2-4-4-|
A|-6-6-6-5-4--6-6-6-5-4--6-6-6-5-4-2-2-2-4-4-|x2
E|-4-4-4------4-4-4------4-4-4-------0-0-2-2-|

Bridge:
E|-----------------------------------------------------|
B|-----------------------------------------------------|
D|-----------------------------------------------------|
G|-7-7-7-7-7-7-6-6-6-6-6-6-6-5-5-5-5-5-2-2-2-2-4-4-4-4-|
A|-7-7-7-7-7-7-6-6-6-6-6-6-6-5-5-5-5-5-2-2-2-2-4-4-4-4-|x2
E|-5-5-5-5-5-5-4-4-4-4-4-4-4-3-3-3-3-3-0-0-0-0-2-2-2-2-|

E|-----------------------------|
B|-----------------------------|
D|-----------------------------|
G|-6-6---6-6---6-6-6---2-2-4-4-|
A|-6-6---6-6---6-6-6---2-2-4-4-|x2
E|-4-4---4-4---4-4-4---0-0-2-2-|

Chorus:
E|-------------------------------------------|
B|-------------------------------------------|
D|-------------------------------------------|
G|-6-6-6------6-6-6------6-6-6-------2-2-4-4-|
A|-6-6-6-5-4--6-6-6-5-4--6-6-6-5-4-2-2-2-4-4-|x4
E|-4-4-4------4-4-4------4-4-4-------0-0-2-2-|


<.................................................11.DON'T LET GO........................................................>

The chords are not mine, but the chords are 100% right

Intro:

A5, F5, E5 x2

Verse:
A5                       F5         E5
Holding my breath as I walk to your garden
                 F5
Everything seems so abandoned
A5                       F5         E5
Roses have grown just as high as a mountain
                F5         C5
Fireflies glow in the dark


Chorus:
C5          G5
Don't let go now
A5      G5     F5
Somebody's lying


Verse 2:
A5               F5        E5
Everyone came to the final revival
                       F5
It's been a year since we've been here
A5                        F5         E5
The spell has been cast to welcome the arrival
            F5           C5
The phantom of silence is near


Chorus:
C5          G5
Don't let go now
A5      G5     F5
Somebody's lying
C5           G5
These wounds won't heal
A5      G5      F5
Somebody's lying


Bridge:
A5                   G5
Break the spell of emptiness
F5                 E5
And thousand years of loneliness
A5                   G5
Bless the path of righteousness
F5                  E5
And walk the trails of holiness
A5     G5       F5
   Your garden is dying
A5     G5       F5
   Somebody's lying


Chorus:
C5            G5
  Don't let go now
A5     G5       F5
   Your garden is dying
C5                  G5
  These wounds won't heal
A5     G5       F5
   Somebody's lying


Chorus:
D#5            A#5
   Don’t let go now
C5  A#5    G#5
     The garden is dying
D#5                  A#5
   These wounds won't heal
C5  A#5    G#5
     Somebody's lying
D#5            A#5

C5  A#5    G#5
     The garden is dying
D#5            A#5

C5  A#5    G#5
     Somebody's lying


End:x2
Hahaaa...
D5 A5 C5 A5 G5

Easy! Plz tell me what do you think and... THE RASMUS RULES!!!!!!!!!!
comments
print report bad tab
4 comments total. Showing first comments.
0 reply
lyrixgirl wrote on August 14 2006, 01:48 pm

on lucifers angel, u missed a bit. From 0:12 to 0:24 its:
(with distortion)
e--------------------------------------------------
B--------------------------------------------------
G---11----12--11---12---14----16-----11------------
D--------------------------------------------------
A--------------------------------------------------
E

0 reply
Kurai wrote on August 18 2006, 11:17 pm

the ones that are right are copied of course
this guy tells a guy that's 18 years old, just started playing guitar that plays well but not perfect, so this bebegay right here tells him that he sucks, and thinks that he (bebegay) is the best guitar player in the world or something like that and that the other guy that plays well and put passion in the music, sux.

u fukin bebebitch, befor LEARNING to play guitar, LEARN to be a good person!!

+1 reply
Kurai wrote on September 4 2006, 07:28 pm

rreeaaaaaaaallllyy wrong, and the ones that are ok are stoled.
PS: ur not the best guitarrist in the world, dont be stupid, stop thinking that, cos its not real, actually ur a reaaaaaaaaaally bad guitarrist
fuker

I want to post or [tab]
guest
You may want to rate the tab now too:
select rating
Please do not post tabs as comments. Select "correction" instead!