Oops, an error
Loading. Please wait.

Angel Tab

4,534 views 6 this week
no commentswrite comment
1 2 3 4 5
please rate
Autoscroll
+/-
esc
set tempo
stop
Contributor
NEW! There's an official Ultimate Guitar app which is ideal
for learning songs when you're away from computer. Get the app
WARNING: You are trying to view
                                    content from Ultimate-Guitar.com
                                    in an unauthorized application,
                                    which is prohibited.

                                    Please use an official Ultimate
                                    Guitar Tabs application for iPhone,
                                    iPad or Android to access legitimate
                                    chords, guitar, bass, and drum tabs
                                    from Ultimate-Guitar.com database.

                                    Type "ultimate guitar tabs" in Apple
                                    App Store's or Android Market's
                                    search to find the application.
Intro
e|--------------------------------------------------------------------|
B|-------------5-5-6--3--3-3-5--1--1-1-3--0---------------------------|
G|-------------5-5-5--4--4-4-4--2--2-2-2--0---------0-4-0-7-5-4-------|
D|--3--5--7----7-7-7--5--5-5-5--3--3-3-3--2----------------------7----|
A|--3--5--7------------------------------------------------------0----|
E|--1--3--5-----------------------------------------------------------|

e|--------------------------------------------|
B|--5-5-6--3--3-3-5--1--1-1-3-----------------|
G|--5-5-5--4--4-4-4--2--2-2-2---------------5-|
D|--7-7-7--5--5-5-5--3--3-3-3-----2--4--5---7-|
A|-----------------------------5--0--2--3-----|
E|-----------------------------3--------------|

Verso
    Voy,voy regresando...
  PM............   ................   .............    ...............
e|-----------------------------------------------------------------------|
B|-----------------------------------------------------------------------|
G|5-5-5-5-5-5-5--5--5-5-5-5-5-5-5--5--5-5-5-5-5-5-5--5--5-5-5-5-5-5-5----|
D|7-7-7-7-7-7-7--6--6-6-6-6-6-6-6--5--5-5-5-5-5-5-5--4--4-4-4-4-4-4-4----|
A|-----------------------------------------------------------------------|
E|-----------------------------------------------------------------------|
 PM................     ............. .................     ~~
e|---------------------------------------------------------------|
B|---------------------------------------------------------------|
G|-5--5-5-5-5-5-5-5--5--5-5-5-5-4-4-4--2-2-2-2-2-2-2-2-----------|
D|-3--3-3-3-3-3-3-3--2--2-2-2-2-2-2-2--0-0-0-0-0-0-0-0----6-5----|
A|--------------------------------------------------------6-5----|
E|--------------------------------------------------------8-7----|
 PM.....       ..........     ..........      ...........
e|--------------------------------------------------------------|
B|--------------------------------------------------------------|
G|--------5-5-------------5-5-------------5-5-------------5-5---|
D|7--7--7-7-6--6--6--6--6-6-5--5--5--5--5-5-4--4--4--4--4-4-3---|
A|0--0--0------0--0--0--0------0--0--0--0------0--0--0--0-------|
E|--------------------------------------------------------------|
                 ~  ~  ~  ~~
e|--------------------------|
B|--------------------------|
G|-----------5--------------|
D|--3--3--3--3---7--5--3--2-|
A|--0--0--0-----------------|
E|--------------------------|

Pre-verso

e|--------(1)-------------------------------------------------------------|
B|--------(1)-------------------------------------------------------------|
G|--------(2)----7---------------5----9--10--9--7--99--5------------------|
D|-3-------------7---------------5----9--10--9--7--99--5------------------|
A|-3-------------5--0-3-5--0--3--3----7--8---7--5--77--7--0-3-5--0-3-5----|
E|-1----------------------------------------------------------------------|

e|-----------(0)------------------------------------|
B|-----------(0)------------------------------------|
G|-----------(0)------12--10--5-------12--10--5-----|
D|------2-------------12--10--5--5----12--10--5--5--|
A|-3-5--2-------------10--8---3--5----10--8---3--5--|
E|------0------------------------3---------------3--|

Coro
     Angel    ella es un angel
e|--------------------------------------(3)-------------------|
B|--------------------------------------(3)-------------------|
G|---5--------2-------------------------(0)------9----5-3--2--|
D|---5--------2--------------2------0------------9----5-3--2--|
A|---3--------0---2--3-2--0--2------2------------7----3-1--0--|
E|---------------------------0------3-------------------------|

e|-------------------------------|
B|-------------------------------|
G|-------------------------------|
D|------5--3--2--------5--3--2---|
A|---------------5--------------5|
E|--3---------------3------------|

    Dame..........dame un instante
e|--------------------------------------(3)-------------------|
B|--------------------------------------(3)-------------------|
G|---5--------2-------------------------(0)------9----5-3--2--|
D|---5--------2--------------2------0------------9----5-3--2--|
A|---3--------0---2--3-2--0--2------2------------7----3-1--0--|
E|---------------------------0------3-------------------------|

e|-------------------------------|
B|-------------------------------|
G|-------------------------------|
D|------5--3--2---------3--5--9--|
A|---------------5------3--5--9--|
E|--3---------------3---1--3--7--|

e|---------------------------------------------------------|
B|--5-5-6--3--3-3-5--1--1-1-3--0---------------------------|
G|--5-5-5--4--4-4-4--2--2-2-2--0---------0-4-0-7-5-4-------|
D|--7-7-7--5--5-5-5--3--3-3-3--2----------------------7----|
A|----------------------------------------------------0----|
E|---------------------------------------------------------|

e|-----------------------------------------------|
B|--5-5-6--3--3-3-5--1--1-1-3--------------------|
G|--5-5-5--4--4-4-4--2--2-2-2---------------5----|
D|--7-7-7--5--5-5-5--3--3-3-3-----2--4--5---7----|
A|-----------------------------5--0--2--3---7----|
E|-----------------------------3------------5----|

2nd verse
                         ~                     ~~~
e|-----------------------------------------------------------|
B|-----------------------------------------------------------|
G|-----------------7--10-9---17/-5-2---5-4---1-2-------------|
D|---7--9--10--9---------------------------------------10-5--|
A|-----------------------------------------------------10-5--|
E|-----------------------------------------------------8--7--|

e|--------------------------------------------------------------|
B|--------------------------------------------------------------|
G|--------5-5-------------5-5-------------5-5-------------5-5---|
D|7--7--7-7-6--6--6--6--6-6-5--5--5--5--5-5-4--4--4--4--4-4-3---|
A|0--0--0------0--0--0--0------0--0--0--0------0--0--0--0-------|
E|--------------------------------------------------------------|
                 ~  ~  ~  ~~
e|--------------------------|
B|--------------------------|
G|-----------5--------------|
D|--3--3--3--3---7--5--3--2-|
A|--0--0--0-----------------|
E|--------------------------|

Pre-verso

e|--------(1)-------------------------------------------------------------|
B|--------(1)-------------------------------------------------------------|
G|--------(2)----7---------------5----9--10--9--7--99--5------------------|
D|-3-------------7---------------5----9--10--9--7--99--5------------------|
A|-3-------------5--0-3-5--0--3--3----7--8---7--5--77--7--0-3-5--0-3-5----|
E|-1----------------------------------------------------------------------|

e|-----------(0)------------------------------------|
B|-----------(0)------------------------------------|
G|-----------(0)------12--10--5-------12--10--5-----|
D|------2-------------12--10--5--5----12--10--5--5--|
A|-3-5--2-------------10--8---3--5----10--8---3--5--|
E|------0------------------------3---------------3--|

Coro
     Angel    ella es un angel
e|--------------------------------------(3)-------------------|
B|--------------------------------------(3)-------------------|
G|---5--------2-------------------------(0)------9----5-3--2--|
D|---5--------2--------------2------0------------9----5-3--2--|
A|---3--------0---2--3-2--0--2------2------------7----3-1--0--|
E|---------------------------0------3-------------------------|

e|-------------------------------|
B|-------------------------------|
G|-------------------------------|
D|------5--3--2--------5--3--2---|
A|---------------5--------------5|
E|--3---------------3------------|

    Dame....dame un instante
e|--------------------------------------(3)-------------------|
B|--------------------------------------(3)-------------------|
G|---5--------2-------------------------(0)------9----5-3--2--|
D|---5--------2--------------2------0------------9----5-3--2--|
A|---3--------0---2--3-2--0--2------2------------7----3-1--0--|
E|---------------------------0------3-------------------------|

e|-------------------------------|
B|-------------------------------|
G|-------------------------------|
D|------5--3--2---------3--5--9--|
A|---------------5------3--5--9--|
E|--3---------------3---1--3--7--|

Solo

e|------------------------------------------------------------------|
B|--10B12-12B13--10--9--12--8--5B7----10B13--10B13---13B15---10/0---|
G|------------------------------------10-----9---------------9-/0---|
D|------------------------------------------------------------------|
A|------------------------------------------------------------------|
E|------------------------------------------------------------------|


e|----------------------------------------5-7-7B8-7-5-5-3-----|
B|------------------------------------5-5---------------------|
G|---7B9-9-9-9R7-5h7p5--4-5-4-5-5B7------------------------5--|
D|------------------------------------------------------------|
A|------------------------------------------------------------|
E|------------------------------------------------------------|

                                             ~~~
e|----------17p15h17p15-13-12----------------------|
B|-9B10-----------------------15-13-12-10-8-10-----|
G|-------------------------------------------------|
D|-------------------------------------------------|
A|-------------------------------------------------|
E|-------------------------------------------------|

Pre coro
      fortuna me das....
e|-----------------------------------------------|
B|-----------------------------------------------|
G|------5----9--10--9--7--99--5------------------|
D|------5----9--10--9--7--99--5------------------|
A|------3----7--8---7--5--77--7--0-3-5--0-3-5----|
E|-----------------------------------------------|

e|-----------(0)------------------------------------|
B|-----------(0)------------------------------------|
G|-----------(0)------12--10--5-------12--10--5-----|
D|------2-------------12--10--5--5----12--10--5--5--|
A|-3-5--2-------------10--8---3--5----10--8---3--5--|
E|------0------------------------3---------------3--|


e|----------------------------------------------|
B|---------------------3----5----6-----10-------|
G|--12--10---5---------5B7--7B9--8B10--12B14----|
D|--12--10---5--5-------------------------------|
A|--10--8----3--5-------------------------------|
E|--------------3-------------------------------|

Coro
     Angel    ella es un angel
e|--------------------------------------(3)-------------------|
B|--------------------------------------(3)-------------------|
G|---5--------2-------------------------(0)------9----5-3--2--|
D|---5--------2--------------2------0------------9----5-3--2--|
A|---3--------0---2--3-2--0--2------2------------7----3-1--0--|
E|---------------------------0------3-------------------------|

e|-------------------------------|
B|-------------------------------|
G|-------------------------------|
D|------5--3--2--------5--3--2---|
A|---------------5--------------5|
E|--3---------------3------------|

    Dame....dame un instante
e|--------------------------------------(3)-------------------|
B|--------------------------------------(3)-------------------|
G|---5--------2-------------------------(0)------9----5-3--2--|
D|---5--------2--------------2------0------------9----5-3--2--|
A|---3--------0---2--3-2--0--2------2------------7----3-1--0--|
E|---------------------------0------3-------------------------|

e|-------------------------------|
B|-------------------------------|
G|-------------------------------|
D|------5--3--2--------5--3--2---|
A|---------------5--------------5|
E|--3---------------3------------|

     Angel    ella es un angel
e|--------------------------------------(3)-------------------|
B|--------------------------------------(3)-------------------|
G|---5--------2-------------------------(0)------9----5-3--2--|
D|---5--------2--------------2------0------------9----5-3--2--|
A|---3--------0---2--3-2--0--2------2------------7----3-1--0--|
E|---------------------------0------3-------------------------|

e|-------------------------------|
B|-------------------------------|
G|-------------------------------|
D|------5--3--2---------3--5--9--|
A|---------------5------3--5--9--|
E|--3---------------3---1--3--7--|

Outro

e|---------------------------------------------------------|
B|--5-5-6--3--3-3-5--1--1-1-3--0---------------------------|
G|--5-5-5--4--4-4-4--2--2-2-2--0---------0-4-0-7-5-4-------|
D|--7-7-7--5--5-5-5--3--3-3-3--2----------------------7----|
A|----------------------------------------------------0----|
E|---------------------------------------------------------|

e|---------------------------------------------------------|
B|--5-5-6--3--3-3-5--1--1-1-3--0---------------------------|
G|--5-5-5--4--4-4-4--2--2-2-2--0---------0-4-0-7-5-4-------|
D|--7-7-7--5--5-5-5--3--3-3-3--2----------------------7----|
A|----------------------------------------------------0----|
E|---------------------------------------------------------|

e|---------------------------------------------------------|
B|--5-5-6--3--3-3-5--1--1-1-3--0---------------------------|
G|--5-5-5--4--4-4-4--2--2-2-2--0---------0-4-0-7-5-4-------|
D|--7-7-7--5--5-5-5--3--3-3-3--2----------------------7----|
A|----------------------------------------------------0----|
E|---------------------------------------------------------|

e|---------------------------------|
B|--5-5-6--3--3-3-5--1--1-1-3--0---|
G|--5-5-5--4--4-4-4--2--2-2-2--0---|
D|--7-7-7--5--5-5-5--3--3-3-3--2---|
A|---------------------------------|
E|---------------------------------|

e|------------------------------------------------|
B|------------------------------------------------|
G|------------------------------------------------|
D|---------------------------5-2--2-2-------------|
A|--10--8--7--5--3--2--------3-0--0-0--5--7/2-----|
E|---------------------5--3------------3--5/0-----|





leyenda

| /  slide up
|   slide down
| h  hammer-on
| p  pull-off
| ~  vibrato
| +  harmonic
| Pm  Mute note
| () Ghost note
| B  bend
| R  soltar el bend
comments
We did not receive enough feedback on this tab! Please rate:
print report bad tab
1 2 3 4 5
I want to post or [tab]
guest
You may want to rate the tab now too:
select rating
Please do not post tabs as comments. Select "correction" instead!