Oops, an error
Loading. Please wait.

Dias Duros Tab

ver1
ver1

Whole song

Interactive

More versions @911Tabs.com
850 views 3 this week
no commentswrite comment
1 2 3 4 5
please rate
Autoscroll
+/-
esc
set tempo
stop
Contributor
Hey! There's an official Ultimate Guitar app which is ideal
for learning songs when you're away from computer. Get the app
WARNING: You are trying to view
                                    content from Ultimate-Guitar.com
                                    in an unauthorized application,
                                    which is prohibited.

                                    Please use an official Ultimate
                                    Guitar Tabs application for iPhone,
                                    iPad or Android to access legitimate
                                    chords, guitar, bass, and drum tabs
                                    from Ultimate-Guitar.com database.

                                    Type "ultimate guitar tabs" in Apple
                                    App Store's or Android Market's
                                    search to find the application.
#----------------------------------PLEASE NOTE---------------------------------#
#This file is the author's own work and represents their interpretation of the #
#song. You may only use this file for private study, scholarship, or research. #
#------------------------------------------------------------------------------#

DIAS DUROS
As recorded by Rata Blanca
(From the 1990 Album MAGOS, ESPADAS Y ROSAS)

Transcribed by Leandro Perazza (Leahorsie@yahoo.com.ar )
	

Words and Music by Walter Giardino - Perigo

E5
x 7 9 9 x x
	
D5
x 5 7 7 x x
	
C#5
x 4 6 6 x x
	
B5
x 2 4 4 x x

G
3 5 5 4 x x
	
A5
5 7 7 x x x

Gtr I (E A D G B E) - 'Gtr 1'
Gtr II (E A D G B E) - 'Gtr 2'
Gtr III (E A D G B E) - 'Gtr 3 (dist)'
Gtr IV (E A D G B E) - 'Gtr 4 (wha)'
Gtr V (E A D G B E) - 'Gtr V (dist)'

   Intro
    Moderate Rock Q=120             1.            2.
    F#m        E          B          D            D
   4/4
                                                  Gtr I
                                                        TP
    W          W          W          W             H    H
||-----------|----------|----------|-----------||-------------|
||o----------|----------|----------|----------o||-------------|
||-----------|----------|----------|-----------||-------------|
||-----------|----------|----------|-----------||-------------|
||o----------|----------|----------|----------o||-------x\----|
||-----------|----------|----------|-----------||-------x\----|


                    1.                   2.
    N.C.
                                         Gtr II
    W                W                   H       H           W
                                                 |
                                                 x

                                                             Gtrs I, II
       PM----------------------------------------------|        PM--------|
    Q  E E E E E E   E E E E E E E E     E E E E E E E E     Q  E E E E E E
||-----------------|------------------||-----------------||-----------------|
||o----------------|-----------------o||-----------------||o----------------|
||-----------------|------------------||-----------------||-----------------|
||-----------------|------------------||-----------------||-----------------|
||o----------------|-----------------o||-----------------||o----------------|
||--0--2-2-2-2-2-2-|-2-2-2-2-2-2-2-2--||-2-2-2-2-2-2-2-2-||--0--2-2-2-2-2-2-|


  1.                  2.
                                         $
                                         $
  N.C.                                 C#5
                     9/8
  PM--------------------------|
  E E E E E E E E     E E E E E  E E E E
|------------------||--------------------|
|-----------------o||--------------------|
|------------------||--------------------|
|------------------||-----------/5-4---6-|
|-----------------o||----------------7-4-|
|-2-2-2-2-2-2-2-2--||-2-2-2-2-2----------|


   Verse
 $
   4/4
         PM------------------|
    +Q   E E E E E E   E E E E  E E E  E   3x
||-------------------|---------------------||
||o------------------|--------------------o||
||-------------------|----------------(6)--||
||--(6)--------------|---------/5-4----6---||
||o-(4)--4-4-4-4-4-4-|-4-4-4-4------7--4--o||
||-------------------|---------------------||


  C#5                       D5                B5         N.C.(F#5)
                      PM--|                              PM------------|
  +W           +H     E E E E    +W           W          E E E E E E E E
|------------|----------------||------------|----------|-------------------|
|------------|----------------||------------|----------|-------------------|
|-(6)--------|-(6)----------7-||-(7)--------|-4--------|-------------------|
|-(6)--------|-(6)----------7-||-(7)--------|-4--------|-------------------|
|-(4)--------|-(4)--------4-5-||-(5)--------|-2--------|-------------------|
|------------|--------5-7-----||------------|----------|-2-2-2-2-2-2-2-2---|


                                                           To Dbl. Coda
                D5               A5         D5   A5     B5
                                                       7/8
  PM
  E E E E E E E E   +W           W          H    H      Q.   +E  E E E
|-----------------|------------|----------|-----------|-----------------||
|---------------3-|-(3)--------|----------|-3---------|-----------------||
|---------2-----2-|-(2)--------|----------|-2----2----|-4----(4)--------||
|-----2-----4---0-|-(0)--------|-2--------|-0----2----|-4----(4)--------||
|---4---4-----4---|------------|-0--------|------0----|-2----(2)-2p0----||
|-2---------------|------------|----------|-----------|--------------4--||


                                                 To Coda       D.S. al Coda
    N.C.
   4/4                                                   9/8
       PM--------------------------|        PM--------------------|
    Q  E E E E E E   E E E E E E E E  3x Q  E E E E E E   E E E E E  E E E E
||-----------------|------------------||----------------|---------------------|
||o----------------|-----------------o||----------------|---------------------|
||-----------------|------------------||----------------|---------------------|
||-----------------|------------------||----------------|-----------/5-4---6--|
||o----------------|-----------------o||----------------|----------------7-4--|
||--0--2-2-2-2-2-2-|-2-2-2-2-2-2-2-2--||-0--2-2-2-2-2-2-|-2-2-2-2-2-----------|


                      Bridge
  &
                  A5                             E5
 9/8                  4/4
          Gtr II
  PM------|
  E E E E E E E E E    +W           +W           W          +Q   Q  Q  +Q
|-------------------||------------|------------|----------|-------------------|
|-------------------||------------|------------|----------|------5--5--(5)\---|
|-----------------2-||-(2)--------|-(2)--------|----------|------4--4--(4)\---|
|-----------------2-||-(2)--------|-(2)--------|----------|------2--2--(2)\---|
|-----------------0-||-(0)--------|-(0)--------|-2--------|-(2)---------------|
|-2-2-2-2-2-2-3-4---||------------|------------|-0--------|-(0)---------------|


  G                         D5                      A5
                      PM|
  W          +H.      E E   W          +H     E E E E
|----------|--------------|----------|-----------------|
|-3--------|-(3)----------|-3--------|-(3)-------------|
|-4--------|-(4)----------|-2--------|-(2)----------2--|
|-5--------|-(5)----------|-0--------|-(0)----------2--|
|-5--------|-(5)------2-3-|----------|--------------0--|
|-3--------|-(3)----------|----------|--------2-3-4----|


  A5                                 E5
          |--3---|          |-3--|        |-3-|          |-3--|
  +H     +Q   Q  Q    H    +Q  Q Q   H    Q Q Q    H    +Q  Q Q
|------------------|---------------|------------|---------------|
|------------------|---------------|------------|---------------|
|-(2)----(2)-(6)-7-|-/9----(9)-7-6-|------------|---------------|
|-(2)----(2)-------|---------------|--------6-7-|-/9----(9)-7-6-|
|-(0)----(0)-(4)-5-|-/7----(7)-5-4-|-2----------|---------------|
|------------------|---------------|-0----0-4-5-|-/7----(7)-5-4-|


  F#m             D5     A5       E5
  PM|    PM|      PM|    PM|      PM|    PM|
  E E Q  E E Q    E E Q  E E Q    E E q  E E q
|---------------|---------------|---------------|
|-----2------2--|-----3---------|---------------|
|-----2------2--|-----2------2--|---------------|
|-----4------4--|-0-0--------2--|---------------|
|---------------|--------0-0----|-----2------2--|
|-2-2----2-2----|---------------|-0-0-0--0-0-0--|


                   Interlude
  N.C.
 7/8               4/4
                    Gtrs I, II
                       PM--------|      PM--------|      PM--------|
  E E E E E E E     Q  E E E E E E   Q  E E E E E E   Q  E E E E E E
|---------------||-----------------|----------------|----------------|
|---------------||o----------------|----------------|----------------|
|-------2-------||-----------------|----------------|----------------|
|-2-4-5---------||-----------------|----------------|----------------|
|---------2-3-0-||o----------------|----------------|----------------|
|---------------||--2--0-2-0-2-5-0-|-2--0-2-0-5-2-0-|-2--0-2-0-2-5-0-|


                                                          Wah-wha Guitar Break
  1.                 2.
  N.C.                                                     N.C.(F#m)
                            Gtrs I, II
  W                           Q   E   E    E    E   E E    W
                              |   |   |    |    |   | |
                              o   o   o    o    o   o o

                     Gtr III                               Gtr IV
                                      \1   /    |
     PM--|
  Q  E E E E E E      a       Q.     +E   +E   +Q.         S S E  Q   Q.   S S
|-----------------||---------12-----(12)-(12)-(12)------||-x-x-----------------|
|----------------o||-15b17==(15)----(15)-(15)-(15)r-----||-----x-10--10----x-x-|
|-----------------||------------------------------------||-----x--9---9----x-x-|
|-----------------||------------------------------------||--------7---7--------|
|----------3-2-0-o||------------------------------------||---------------------|
|-2--0-2-0--------||------------------------------------||---------------------|


  N.C.(F#m)
  S S S S  Q   Q  S S S S   S S S S  Q   Q   E E   S S S S  Q.    E  Q
|-x-x-------------x-x-----|----------------------|-x-x-------------------|
|-x-x-x-x-10--10--x-x-----|-x-x-----10--10--10Sx-|-x-x-x---10----13-12\--|
|-----x-x--9---9------x-x-|-x-x-x-x--9---9---9Sx-|-----x-x--9----12-11\--|
|----------7---7------x-x-|-----x-x--7---7---7Sx-|-------x--7----10--9\--|
|-------------------------|----------------------|-----------------------|
|-------------------------|----------------------|-----------------------|


  N.C.(F#m)
  E S S S S  Q   Q  S S   S S S S S S  Q   Q  S S   S S S S S S  Q   Q.
|-------------------x-x-|-----x-x-x-x-------------|-x-x-------------------|
|---x-------10--10--x-x-|---------x-x-10--10--x---|-x-x-x-x-----10--10----|
|-----x---x--9---9------|-x-x----------9---9----x-|-----x-x-x-x--9---9----|
|-------x-x--7---7------|-x-x----------7---7------|---------x-x--7---7----|
|-----------------------|-------------------------|-----------------------|
|-----------------------|-------------------------|-----------------------|


                           Guitar Solo
  N.C.                      B5
  Gtrs I, II                Gtr II
  Q       E E E E  E   E      W                +H       +Q.   E
  |       | | | |  |   |      |                 |        |    |
  o       o o o o  o   o      /                 /        /    x

  Gtr III                   Gtr V
                                     |-3--|     |--3--|
  H.              +Q          H     +Q  Q Q     Q a Q Q  Q.   E
|------------------------||------------------|------------------|
|------------------------||------------------|------------------|
|------------------------||-/11----(11)-9-7--|--6-6h7p6---------|
|------------------------||------------------|-----------9----7-|
|------------------------||------------------|------------------|
|-9b9.5===========(9)r---||------------------|------------------|


    G                                       A5
    W                  +H      +Q.      E   W
    |                   |       |       |   |
    /                   /       /       x   /

                                     ~~~
           |---3---|                        |--3--|  |---3----|
  a Q.   E Q a a Q Q    Q  E E  Q   +Q      Q  Q  Q  Q  Q  a  Q
|--------------------|--------------------|----------------------|
|--------------------|--------------------|---10-10-10-12-12h14--|
|--------6-7-6h7p6---|-/9--7p6--7---(7)---|----------------------|
|-7h9--------------9-|--------------------|----------------------|
|--------------------|--------------------|----------------------|
|--------------------|--------------------|----------------------|


  E5                       A5                  E5
         W                 W                    W
         |                 |                    |
         /                 /                    /

         |-3--|  |-3-|                 |-3-|
   a  a  Q  Q Q  Q Q Q     E S S E  E  Q Q Q    Q  E E Q.   E
|------------------------|-------------------|----------------|
|-12h14p12-10-9----------|-------------------|----------------|
|---------------11-9-7---|-6-6-6-6-----6-7p6-|-/9--7p6--------|
|------------------------|---------(5)-------|---------9\-----|
|------------------------|-------------------|----------------|
|------------------------|-------------------|----------------|


  B5
   W
   |
   /

  Gtr V
                        |-3--|
   H        +E   +S  S  S S  S  E
|--------------------9h10p9-10-10-|
|-10b12----(10)-(10)--------------|
|---------------------------------|
|---------------------------------|
|---------------------------------|
|---------------------------------|


  +W
   |
   /

       |-3--|  |-3--|   |-3--|
   S S S S  S  S S  S  +S  S S S a  S E  a  E  a      +E
|----7h9p7----10p7---------7h9-7-9h10-7-------------------|
|-10-------10------10-(10)--------------10h12-10b12==(10)-|
|---------------------------------------------------------|
|---------------------------------------------------------|
|---------------------------------------------------------|
|---------------------------------------------------------|


  G
   W
   |
   /

             ~~~
                   |-3--|
   E  +S  S +Q.    E E  E  +E
|------------------------------|
|-10r(10)-8-(8)---14---15-(15)-|
|------------------------------|
|------------------------------|
|------------------------------|
|------------------------------|


                                  A5
     +H             +Q.       E    W
      |              |        |    |
      /              /        x    /

                           ~~~~
                                   |--3---|  |--3--|
   a  E. T  T  E  E  Q    +Q       Q   Q  Q  Q Q a Q
|-------------------------------|--------------7-7h9---|
|-15h17p15h17p15-14-15---(15)---|-15\-10-10-10---------|
|-------------------------------|----------------------|
|-------------------------------|----------------------|
|-------------------------------|----------------------|
|-------------------------------|----------------------|


      E5     D5       C#5
      H      H        W                       +H          H
      |      |        |                        |          |
      /      /        /                        /          /

                                                  \2
                          ~~~~~~
      |-3--| |-3-|
  a a Q  Q Q Q Q Q    E S S +E  a E +Q   Q    +E  E  +H      +E  E
|-7h9p7-------------|-----------------------|-------------------------|
|-------10-9-7-9-7--|-6-6-6-(6)-------------|-------------------------|
|-------------------|-----------6h7-(7)--4--|-(4)-6--(6)-----(6)-4b6==|
|-------------------|-----------------------|-------------------------|
|-------------------|-----------------------|-------------------------|
|-------------------|-----------------------|-------------------------|


  F#m
  +Q   S    S    S    S    S    S    S    S    Q
|----------------------------------------------------|
|----------------------------------------------------|
|-(4)--4pb6-4pb6-4pb6-4pb6-4pb6-4pb6-4pb6-4pb6-4pb6--|
|----------------------------------------------------|
|----------------------------------------------------|
|----------------------------------------------------|
|
| Gtr II
|  PM                      PM--------|
|  Q   Q                   E         E         Q
|----------------------------------------------------|
|------2---------------------------------------2-----|
|------2---------------------------------------2-----|
|----------------------------------------------------|
|----------------------------------------------------|
|--2-----------------------2---------2---------------|


                    |-3--| |---3----| |3|
  Q     +S  S E    +S  S S S    +S  S S E    +E
|------------------------------------------------|
|------------------------------------------------|
|-4pb6r=(4)p2-4pb6r(4)-2---4pb6r(4)p2s1-4b6==(4)-|
|------------------------x-----------------------|
|------------------------------------------------|
|------------------------------------------------|
|
| PM                PM-----|
| Q      Q          E      E          Q
|------------------------------------------------|
|--------2----------------------------2----------|
|--------2----------------------------2----------|
|------------------------------------------------|
|------------------------------------------------|
|-2-----------------2------2---------------------|


  F#m                              E5            D5
                                                           \0.5
                           ~~~
              |-3-|                        |-3-| |----3----|
  +E  +S  T T S S S E a E +Q.      Q     E S S S Q   a Q   Q
|--------------------------------|------------------------------|
|--------------------------------|-3b5---3-2h3p2----------------|
|-(4)r(4)p2p1h2-2-2p1------------|---------------4---4s2---1----|
|---------------------2s4-(4)----|------------------------------|
|--------------------------------|------------------------------|
|--------------------------------|------------------------------|
|
|  PM                   PM|        PM--|         PM|
|  Q          Q         E  E  Q    E   E Q       E E     Q
|--------------------------------|------------------------------|
|-------------2---------------2--|------------------------------|
|-------------2---------------2--|-------9----------------------|
|--------------------------------|-------9---------------7------|
|--------------------------------|-7---7---------5-5-----5------|
|--2--------------------2--2-----|------------------------------|


  F#m
   \0.5/                 \3.5
                                                 ~
                                                       |-3--|
   Q      +S    S  +E   +Q      S  S  E     Q.   H    +S  S S
|---------------------------------------|---------------------|
|---------------------------------------|-^10----0----(0)---7-|
|-------------/11-(11)-(11)----------11-|-^11-------------9---|
|-------------/11-(11)-(11)----11-11-11-|-^11-----------------|
|--------------/9--(9)--(9)-----9--9--9-|---------------------|
|-/7------(7)---------------------------|---------------------|


  |-3--|     |-3--| |-3-| |3|
  S  S S S S S S  S S S S S E E     +S  +S  E
|-----------------------------------------------|
|---10p7---9p7---10p7---9p7---------------------|
|-9------9-----9------9-----9-9b11==(9)r(9)p7/--|
|-----------------------------------------------|
|-----------------------------------------------|
|-----------------------------------------------|


  E5                    D5
                             ~~~~
    E   E      +E   +E   E  +E   S  T  T  E
|------16b17==(16)r(16)-16-(16)-14h16p14----|
|----------------------------------------17-|
|-(16)--------------------------------------|
|-------------------------------------------|
|-------------------------------------------|
|-------------------------------------------|


  F#m
                                         ~~~~~~
   +E      +S   +S       +S    S   +E    Q.       E
|-----------------------------17--(17)--17----------|
|-(17)b19r(17)-(17)b19==(17)-(17)-(17)r-17pb19---17-|
|---------------------------------------------------|
|---------------------------------------------------|
|---------------------------------------------------|
|---------------------------------------------------|


  F#m
                                    ~~~~~~~~~~~~~
   +E      +S   +S       +E    E    Q.       +S   S
|-----------------------------17---17-------(17)----|
|-(17)b19r(17)-(17)b19==(17)-(17)r-17pb19---(17)-14-|
|---------------------------------------------------|
|---------------------------------------------------|
|---------------------------------------------------|
|---------------------------------------------------|


                                    ~~
                  |--3--|
   S  S  S  T  T  S  S  S  S  S  E  E  +E    a  E
|-14----------------------------------------------|
|----17p14----14----------------------------------|
|----------14----17p16p14----16-14-14-(14)\-10s11-|
|-------------------------16----------------------|
|-------------------------------------------------|
|-------------------------------------------------|


  E5                   D5
                |-3--|
  E  E  a  S S  S S  S S  E      S   S  S  S  S
|------------9-10p9----9--------12--------------|
|-9-10-10h12--------12---12b14-(12)-12-10----10-|
|-----------------------------------------11----|
|-----------------------------------------------|
|-----------------------------------------------|
|-----------------------------------------------|


  F#m
                 ~~~~~~~
   S S  S T T E +E  +Q   S S S S
|--------------------------------|
|----------------------------x---|
|-11---------------------x-x-x-x-|
|----9S11-7s9-7-(7)-(7)--x-x-x-x-|
|--------------------------------|
|--------------------------------|


  F#m
                   ~~~~~~~~~
   |-3-|  |-3--|
   E E E  E E  E  +Q    +S   S  S S
|--9--------------------------------|
|-10-----10---10-(10)--(10)---------|
|-11---x-11---11-(11)--(11)-------x-|
|------x-11---11-(11)--(11)-(x)-x---|
|--------------9--(9)---(9)-(x)-----|
|-----------------------------------|


                                          E5       D5
                                                    ~~
                                           |--3--|
   E  Q      +E   S  S  E      +E   +E     Q  Q  Q  Q   +E  E
|----17b19r=(17)-16p14------------------|----------------------|
|----------------------17b19==(17)r(17)-|-14h15-14-------------|
|-/x------------------------------------|----------16--(16)s0--|
|---------------------------------------|----------------------|
|---------------------------------------|----------------------|
|---------------------------------------|----------------------|


    D5      A             E5                    D5      A
    Gtr V
                                      ~
  a E E E E E   E E   E   E    +E E E H         E E E E E   E E E
|-----------------------|---------------------|---------------5----|
|---------------5-----5-|---------------------|-------------5---5\-|
|-2h4-2-4-2-4b6---4b6---|-4pb6r(4)2-4---------|-4-2-4-2-4b6--------|
|-2h4-------------------|-------------2-------|-4------------------|
|-----------------------|---------------------|--------------------|
|-----------------------|---------------------|--------------------|
|
|   Gtr II
|   E E E E E   E E   E   E     E E E E E E E   E E E E Q     E E
|-----------------------|---------------------|--------------------|
|-----------------------|---------------------|--------------------|
|-----------------------|---------------------|--------------------|
|-----------------------|---------------6h7p6-|--------------------|
|---5p4h5p4-0h==4-5h==7-|-7p====5h7p5-7-------|-5p4h5p4-0-----4h5--|
|-----------------------|---------------------|--------------------|


  C#5
  |-3-| |-3-| |-3--| |-3-| |-3-|       |----5-----|
  S S S S S S S S  S S S S S S S a S S T T   T T  T  S  S
|-5p4p3-4-3-4-5-4-/5h6p5p4h5-4-5-5h6-5-4h5-----9h10h12----|
|------------------------------------------/11---------12-|
|---------------------------------------------------------|
|---------------------------------------------------------|
|---------------------------------------------------------|
|---------------------------------------------------------|
|
| E     E     E      E     E       E   E             E
|---------------------------------------------------------|
|---------------------------------------------------------|
|---------------------------------------------------------|
|---------------------------------------------------------|
|-4h====5p====4h=====5-----4h======5p==4h============5----|
|---------------------------------------------------------|


  |--3--|  |-3--|  |--3--|
  S  S  S  S S  S  S  S  S  +E      +S  +S      +Q    +E
|-9h10h12----9h10----16-19-(19)b21r(19)(19)b21-(19)--(19)\---|
|---------12------18-----------------------------------------|
|------------------------------------------------------------|
|------------------------------------------------------------|
|------------------------------------------------------------|
|------------------------------------------------------------|
|
| E        E       E         E       E           E E   E
|------------------------------------------------------------|
|------------------------------------------------------------|
|------------------------------------------------------------|
|-6h=======7p======6h========7-------6h==========7p6h==7-----|
|------------------------------------------------------------|
|------------------------------------------------------------|


  C#5
  Gtr II
   W                +W
   |                 |
   /                 /

  Gtr V
            ~~~~~~~~~~~~
                     |--3---|   |--3--|
   Q.    E  H       +Q   Q  Q   Q  Q  Q
|----------------|------------------------|
|-14----15-14----|-(14)-14-15-/17-15-14---|
|----------------|------------------------|
|----------------|------------------------|
|----------------|------------------------|
|----------------|------------------------|


  B5
   W                +W
   |                 |
   /                 /

            ~~~~~~~~~~~~
                     |--3---|  |--3--|
   Q.    E  H       +Q   Q  Q  Q  Q  Q
|----------------|------------------------|
|-12----14-12----|-(12)-12-14-15-14-12----|
|----------------|------------------------|
|----------------|------------------------|
|----------------|------------------------|
|----------------|------------------------|


  C#5         E5      D5         C#5          E5
   W           H       H          H      Q.    E   +W
   |           |       |          |      |     |    |
   /           /       /          /      x     /    /

               |-3--|  |-3--|
   W           Q  Q Q  Q Q  Q     H     +Q.    E   +W
|-----------|------------------|-----------------|--------|
|-14--------|-12-10-9-10-9-----|-----------------|--------|
|-----------|--------------11--|-10----(10)---/9-|-(9)----|
|-----------|------------------|--------------/9-|-(9)----|
|-----------|------------------|--------------/7-|-(7)----|
|-----------|------------------|-----------------|--------|


       N.C.(F#m)
   /1____|                               \1/   \3.5___|
                ~~~
   a    +H      Q.    E        +Q.    E  E    +Q      S a  S
|---------------------------|-----------------------------14-----|
|-15---(15)----14----15pb17r|=(15)---15-14---(14)-----x---17b19==|
|---------------------------|---------------------------x--------|
|---------------------------|------------------------------------|
|---------------------------|------------------------------------|
|---------------------------|------------------------------------|


                                                            ~~~~
   +Q    +E    E      +Q    +E   +E    S S S  S      +Q    +Q    +E   +E
|-(14)--(14)-(17)----(17)--(17)-(17)-|-x-----17-----(17)--(17)--(17)-(17)-|
|-(17)r=(17)--17b19==(17)--(17)r(17)-|---x---17b19==(17)--(17)--(17)r(17)-|
|------------------------------------|---x-x------------------------------|
|------------------------------------|------------------------------------|
|------------------------------------|------------------------------------|
|------------------------------------|------------------------------------|


  N.C.(F#m)
              ~~~~                           PM|
   W                            W
|----------------------------|---------------2---------|
|----------------------------|---------------2-2-------|
|-(x)--4b6===(4)r=(4)---4b6==|=(4)---(4)r(4)-----4b6===|
|---------------------x------|-------------------------|
|----------------------------|-------------------------|
|----------------------------|-------------------------|
   Q   Q     +Q   +E  a E      +Q.   +E  +E  S S Q


                                    Gtr V
   W                                    H                                      H
|-----------------------------------|-----------------------------------------12---------|
|-----------------------------------|-----------------------------------------15b17------|
|-(4)r=4---[14]b16==(14)--(14)r(14)-|-(14)b16r(14)-(14)b16r(14)-(14)b16r(14)-(14)b16=====|
|--------x--------------------------|----------------------------------------------------|
|-----------------------------------|----------------------------------------------------|
|-----------------------------------|----------------------------------------------------|
  +Q   E a   E       +Q    +E   +E     +E      +E   +S      +S   +S      +S   +H


 Wha-wha Guitar Break
  N.C.(F#m)
          Gtr IV
   +Q     S S  Q   Q.     S S S S S S  Q   Q.     S S S S S S  Q   Q.
|-----------x-----------|-----------------------|-----x-x----------------|
|---------x-x-10--10----|-----x-x-----10--10----|-----x-x-x-x-10--10-----|
|-(14)r\--x-x--9---9----|-x-x-x-x-x-x--9---9----|---x-x---x-x--9---9-----|
|--------------7---7----|-x-x---x-x-x--7---7----|-x-x----------7---7-----|
|-----------------------|-----------------------|------------------------|
|-----------------------|-----------------------|------------------------|


  N.C.(F#m)
  S S S S S S  E  E  E  E  +E
|-----x-x-x---------------------|
|-x-x-x-x-x-x-10-10-13-12-(12)\-|
|-x-x-----x-x--9--9-12-11-(11)\-|
|-----------x--7--7-10--9--(9)\-|
|-------------------------------|
|-------------------------------|


  E S S S S  Q   Q.     E S S S S  Q   E  +Q
|---x-----------------|---x-x-------------------|
|-x-x-x-x-x-10--10----|---x-x-x-x-10--10-(10)---|
|-x-----x-x--9---9----|-x-----x-x--9---9--(9)---|
|---------x--7---7----|-x----------7---7--(7)---|
|---------------------|-------------------------|
|---------------------|-------------------------|


                                         D.S.S. al Dbl. Coda
  N.C.(F#m)               A5               B5      C#5
                                          9/8
                          Gtrs I, II
  S S S S S S  Q   Q.     Q  E E E E E E   E E E E E  E E E E
|-----------------------|----------------|--------------------||
|-----x-x-----10--10----|----------------|--------------------||
|-x-x-x-x-x-x--9---9----|-2--------------|--------------------||
|-x-x---x-x-x--7---7----|----4-2---------|-----------/5-4---6-||
|-----------------------|--------4-3-2-0-|---------2------7-4-||
|-----------------------|----------------|-0-1-2-5------------||


 Guitar Solo 2
  &&
  N.C.(F#m)          (E)                    (B)         (D)
 4/4
  Gtr V
                            ~~~~
           |--3--|                |--3--|               |----3----| |-3--|
    H     +Q  Q  Q     Q   +Q    +Q   Q Q    W          Q a a  Q  Q Q  Q Q
|------------------|----------------------|-----------|-------12-10-9----9-|
|-------------9-10-|-/12--(12)--(12)-10-9-|-----------|-----x---------12---|
|-/11----(11)------|----------------------|-11--------|---x----------------|
|------------------|----------------------|-----------|--------------------|
|------------------|----------------------|-----------|--------------------|
|------------------|----------------------|-----------|--------------------|


  N.C.(F#m)           (E)
             ~~                               ~~~~
   Q   E  E  Q   Q     Q   Q      +S   S  E  +Q
|---------------16--|-17--16b17r=(16)p14-16-(16)--|
|-15p=14p12h14------|-----------------------------|
|-------------------|-----------------------------|
|-------------------|-----------------------------|
|-------------------|-----------------------------|
|-------------------|-----------------------------|


  (B)                    (D)
                  ~~
                          |--3--|  |---3----|
   Q      +E   E  H       Q  Q  Q  Q  Q     Q
|----------------------|-------------------12-|
|-17b19r=(17)-17-16----|-15p14-12----12b14----|
|----------------------|----------14----------|
|----------------------|----------------------|
|----------------------|----------------------|
|----------------------|----------------------|


  N.C.
  Gtrs I, II
           Q   S S E S S E S S E    S  S  E   S  S E S S E S S E
           |   | | | | | | | | |    |  |  |   |  | | | | | | | |
           o   o / / / / / / / /    /  /  /   /  / / / / / / / /

  Gtr V
                                          ~~~~~~~~~~~~~
   a      +W                        S  S  E  +Q      H
|--------------------------------|-------------------------------|
|-12b14==(12)r===================|=12-10-12-(12)-----9-----------|
|--------------------------------|-------------------------------|
|--------------------------------|-------------------------------|
|--------------------------------|-------------------------------|
|--------------------------------|-------------------------------|


  Q    S S    E S S E    S S E     S  S E   S S   E S S E   S S   E
  |    | |    | | | |    | | |     |  | |   | |   | | | |   | |   |
  o    o /    / / / /    / / /     /  / /   / /   / / / /   / /   /

                       ~~                 PM--------------------|
  |----3----|   |--3---|           |-----3------|   |-----3-----|
  Q  Q      Q   Q      H          +Q      Q     Q   Q     Q     Q
|------------------------------|--------------------------------------|
|-9s12-----10---9--------------|--------------------------------------|
|---------------------11-------|-(11)-----9-----7---6-----------9-----|
|------------------------------|--------------------------9-----------|
|------------------------------|--------------------------------------|
|------------------------------|--------------------------------------|


  N.C.(F#m)              (E)
  Gtr III
  W                        W
  Gtr V
  ~                             ~~~
  H    Q   a      +Q      +Q    Q.    Q.
|----------------------|----------------------|
|---------17b19==(17)r=|=(17)--14----17b19====|
|-6--------------------|----------------------|
|----------------------|----------------------|
|----------------------|----------------------|
|----------------------|----------------------|


  (B)                       (D)
                              |-3-|
    W                         Q   H     H
                                  |     |
                                  o     o

               ~~~
                              |--3---|  |--3--|
   +Q    +Q    Q.    E       +q   Q  Q  Q  Q  Q
|-------------------------|------16-17p16p14------|
|-(17)r=(17)p=14----17b19-|-(17)-------------17---|
|-------------------------|-----------------------|
|-------------------------|-----------------------|
|-------------------------|-----------------------|
|-------------------------|-----------------------|


  N.C.(F#m)                   (E)        (B)           (D)            (F#m)
                                                             |-3-|
  W                           W           W            H    +Q Q Q    W
  |                           |           |            |     | | |    |
  o                           o           o            o     / o o    o

                              ~
  H        +E   E     +Q      W           H     H      W              W
|---------------------------|----------|-------------|--------------|------|
|---------------------------|----------|-------------|--------------|------|
|-9b11=====(9)r-9b11==(9)r--|-9--------|-(8)---------|--------------|------|
|---------------------------|----------|-------------|--------------|------|
|---------------------------|----------|-------------|--------------|------|
|---------------------------|----------|-------------|--------------|------|


  (E)           (B)          (D)              (F#m)       (E)        (B)
  Gtr III
   H.      Q    H.      Q    +Q   Q.   Q.      W          W          H    H
|-------------|------------|----------------|-----------|----------|-----------|
|-------------|------------|----------------|-----------|----------|-----------|
|-------------|---------6--|-(6)--7----9----|-11--------|-9--------|-8---------|
|-/4-------6--|-7----------|----------------|-----------|----------|------9----|
|-------------|------------|----------------|-----------|----------|-----------|
|-------------|------------|----------------|-----------|----------|-----------|


  N.C.(D)    (F#m)       (E)        (B)          (D)
  W           W          W          H    Q  Q    Q  Q  Q  Q
|----------|-----------|----------|------------|---------------||
|----------|-----------|----------|------------|---------------||
|-7--------|-----------|----------|------------|---------------||
|----------|-11--------|-9--------|-9----7--6--|-4-------------||
|----------|-----------|----------|------------|----7--5--4----||
|----------|-----------|----------|------------|---------------||


 Outro
  N.C.
  Gtrs I, II
   Q           S  S  S  S  S  S  S  S  S  S  S  S
   |           |  |  |  |  |  |  |  |  |  |  |  |
   o           o  /  /  /  /  /  /  /  /  /  /  /

  Gtr V
         PM|               PM|               PM|
   S  S  S  S  S  S  S  S  S  S  S  S  S  S  S  S
|-17p14-------17p14-17p14-------17p14-17p14----14-|
|-------14-14-------------14-14-------------14----|
|-------------------------------------------------|
|-------------------------------------------------|
|-------------------------------------------------|
|-------------------------------------------------|


   S  S  S  S  S  S  S  S  S  S  S  S  S  S  S  S
   |  |  |  |  |  |  |  |  |  |  |  |  |  |  |  |
   /  /  /  /  /  /  /  /  /  /  /  /  /  /  /  /

               PM|               PM|
   S  S  S  S  S  S  S  S  S  S  S  S  S  S  S  S
|-19p14-17p14----14-19p14-17p14----14-19p14-17p14--|
|-------------14----------------14-----------------|
|--------------------------------------------------|
|--------------------------------------------------|
|--------------------------------------------------|
|--------------------------------------------------|


  N.C.(F#m)
   PM|               PM|               PM------|
   S  S  S  S  S  S  S  S  S  S  S  S  S  S  S  S
|----14-19p14-17p14----14-19p14-17p14----19-14----|
|-14----------------14----------------14-------14-|
|-------------------------------------------------|
|-------------------------------------------------|
|-------------------------------------------------|
|-------------------------------------------------|


         PM       PM       PM                PM|
   S. T  S  S  S  S  S  S  S  S  S  S  S  S  S   S
|-21p19----17p14----17p14----14-16-17-16-14----(14)--|
|-------19-------14-------14----------------14-------|
|----------------------------------------------------|
|----------------------------------------------------|
|----------------------------------------------------|
|----------------------------------------------------|


  N.C.(F#m)
   S  S  S  S  s     S  S  S     S  S  S     S  S  S     S  S
|-16-17-16-14-------14-14-------14-14-------14-14-------14-14-|
|-------------17b19-------17b19-------17b19-------17b19-------|
|-------------------------------------------------------------|
|-------------------------------------------------------------|
|-------------------------------------------------------------|
|-------------------------------------------------------------|


   S  S  S     S  S  S  S     S  S  S     S  S     S  S     S  S
|-14-14-------14-14-14-------14-14-------14-------14-------14-14--|
|-------17b19----------17b19-------17b19----17b19----17b19--------|
|-----------------------------------------------------------------|
|-----------------------------------------------------------------|
|-----------------------------------------------------------------|
|-----------------------------------------------------------------|


    N.C.(F#m)
     S     S  S  S     S  S  S     S  S  S     S  S  S     S  S  S
||--------14-14-------14-14-------14-14-------14-14-------14-14-------|
||o-17b19-------17b19-------17b19-------17b19-------17b19-------17b19-|
||--------------------------------------------------------------------|
||--------------------------------------------------------------------|
||o-------------------------------------------------------------------|
||--------------------------------------------------------------------|


   S  S  S     S  S  S     S  S  S     S  S  S     S  S  S     S  3x
|-14-14-------14-14-------14-14-------14-14-------14-14-------14--||
|-------17b19-------17b19-------17b19-------17b19-------17b19----o||
|-----------------------------------------------------------------||
|-----------------------------------------------------------------||
|----------------------------------------------------------------o||
|-----------------------------------------------------------------||



Duration Legend
---------------
W - whole; H - half; Q - quarter; E - 8th; S - 16th; T - 32nd; X - 64th; a - acciaccatura
+ - note tied to previous; . - note dotted; .. - note double dotted
Uncapitalized letters represent notes that are staccato (1/2 duration)
Irregular groupings are notated above the duration line
Duration letters will always appear directly above the note/fret number it represents the
duration for.  Duration letters with no fret number below them represent rests.  Multi-
bar rests are notated in the form Wxn, where n is the number of bars to rest for.  Low
melody durations appear below the staff

Tablature Legend
----------------
 h   - hammer-on
 p   - pull-off
 b   - bend
 pb  - pre-bend
 r   - bend release (if no number after the r, then release immediately)
 /\  - slide into or out of (from/to "nowhere")
 s   - legato slide
 S   - shift slide
 - natural harmonic
[n]  - artificial harmonic
n(n) - tapped harmonic
 ~   - vibrato
 tr  - trill
 T   - tap
 TP  - trem. picking
 PM  - palm muting
\n/  - tremolo bar dip; n = amount to dip
 \n  - tremolo bar down
 n/  - tremolo bar up
/n\  - tremolo bar inverted dip
 =   - hold bend; also acts as connecting device for hammers/pulls
 <> - volume swell (louder/softer)
 x   - on rhythm slash represents muted slash
 o   - on rhythm slash represents single note slash

Misc Legend
-----------
 |  - bar
||  - double bar
||o - repeat start
o|| - repeat end
*|  - double bar (ending)
 :  - bar (freetime)
 $  - Segno
 &  - Coda
Tempo markers -  = BPM(8/16=s8/s16), where s8 = swing 8ths, s16 = swing 16ths

comments
We did not receive enough feedback on this tab! Please rate:
print report bad tab
1 2 3 4 5
I want to post or [tab]
guest
You may want to rate the tab now too:
select rating
Please do not post tabs as comments. Select "correction" instead!