Oops, an error
Loading. Please wait.

El Beso De La Bruja Tab

ver1
ver1

Solo

Whole song

Interactive

More versions @911Tabs.com
2,077 views 9 this week
no commentswrite comment
1 2 3 4 5
please rate
Autoscroll
+/-
esc
set tempo
stop
Contributor
Hey! There's an official Ultimate Guitar app which is ideal
for learning songs when you're away from computer. Get the app
WARNING: You are trying to view
                                    content from Ultimate-Guitar.com
                                    in an unauthorized application,
                                    which is prohibited.

                                    Please use an official Ultimate
                                    Guitar Tabs application for iPhone,
                                    iPad or Android to access legitimate
                                    chords, guitar, bass, and drum tabs
                                    from Ultimate-Guitar.com database.

                                    Type "ultimate guitar tabs" in Apple
                                    App Store's or Android Market's
                                    search to find the application.
#----------------------------------PLEASE NOTE---------------------------------#
#This file is the author's own work and represents their interpretation of the #
#song. You may only use this file for private study, scholarship, or research. #
#------------------------------------------------------------------------------#

EL BESO DE LA BRUJA
As recorded by Rata Blanca
(From the 1990 Album MAGOS, ESPADAS Y ROSAS)

Transcribed by Leandro Perazza (Leahorsie@yahoo.com.ar )
	

Words and Music by Walter Giardino - D.R.

C5
x 3 5 5 x x
	
Bb5
x 1 3 3 x x
	
G5
3 5 5 x x x
	
Eb5
x 6 8 8 x x

D5
x 5 7 x x x
	
Eb5(type 2)
x 6 8 x x x
	
C5(type 2)
x 3 5 x x x
	
Bb5(type 2)
x 1 3 x x x

F5
1 3 x x x x
	
A5
x 0 2 x x x
	
D5(type 2)
x 5 7 7 x x
	
G5(type 2)
3 5 x x x x

G
3 5 5 4 x x

Gtr I (E A D G B E) - 'Gtr 1 '
Gtr II (E A D G B E) - 'Gtr 2'
Gtr III (E A D G B E) - 'Gtr 3'
Gtr IV (E A D G B E) - 'Gtr 4'

 Intro
  Fast Rock Q=146
               $
               G5Bb5   C5  Bb5C5 Bb5
 4/4
               Gtrs I, II, III
  Wx2          E E +S  E S E. E. E
|------------|---------------------|
|------------|---------------------|
|------------|---3-(3)-5---3--5--3-|
|------------|-5-3-(3)-5-x-3--5--3-|
|------------|-5---------x---------|
|------------|---------------------|


      Bb5   C5  Bb5G5 F5    Bb5   C5  Bb5C5 Bb5
  S S E +S  E S E. E. E   E E +S  E S E. E. E
|-----------------------|----------------------|
|-----------------------|----------------------|
|-x-x-3-(3)-5---3-------|---3-(3)-5---3--5--3--|
|-x-x-3-(3)-5---3--5--3-|---3-(3)-5-x-3--5--3--|
|-------------x----5--3-|-----------x----------|
|-----------------------|----------------------|


  D5  Eb5   F5 C5        Bb5   C5  Bb5C5 Bb5   Bb5   C5  Bb5G5 F5
   e. S +E   E  H      E E +S  E S E. E. E   E E +S  E S E. E. E
|--------------------|---------------------|---------------------|
|--------------------|---------------------|---------------------|
|-/7--8-(8)-10-------|---3-(3)-5---3--5--3-|---3-(3)-5---3-------|
|-/7--8-(8)-10-10----|---3-(3)-5-x-3--5--3-|---3-(3)-5---3--5--3-|
|--------------10----|-----------x---------|-----------x----5--3-|
|--------------------|---------------------|---------------------|


                                              Verse 1
                                  To Coda
    Bb5   C5  Bb5C5 Bb5 Eb5       Bb5B5        C5
                                               Gtr II
  W                      W                      W          +Q.   E H
                                                |           |    | |
                                                /           /    x x

                                               Gtrs I, III
  E E +S  E S E. E. E    Q  +E. S Q   a  Q      W          +W
|---------------------|---------------------||-----------|--------------|
|---------------------|---------------------||-----------|--------------|
|---3-(3)-5---3--5--3-|-/8--(8)-------------||-----------|--------------|
|---3-(3)-5-x-3--5--3-|-/8--(8)---3--(3)s4--||-/5--------|-(5)----------|
|-----------x---------|-----------1--(1)s2--||-/3--------|-(3)----------|
|---------------------|---------x-----------||-----------|--------------|


  Bb5                          C5         Bb5
  Gtr II
  W          +W                W                    +W
  |           |                |                     |
  /           /                /                     /

  Gtr I
  W           E.S +E  E H      Q  +E  S S E E. E.    Q  +E  E E.  E. E
|----------|-----------------|--------------------|----------------------|
|----------|-----------------|--------x-3-4-3-----|----------------------|
|----------|-/8s7-(7)-5s7----|-5--(5)-x-3-3-3--3--|--5--(5)---3\---------|
|-3--------|-----------------|-5--(5)-x---5-3--3--|--5--(5)-x-3\---------|
|-1--------|-/6s5-(5)-3s5----|-3--(3)-------------|---------x----/8--7---|
|----------|-----------------|--------------------|--------------/6--5---|


  G5
  W               +W
  |                |
  /                /

  W               +H.               +E  S S
|---------------|---------------------------|
|---------------|---------------------------|
|---------------|---------------------------|
|---------------|-----------------------x-x-|
|-5-------------|-(5)---------------(5)-x-x-|
|-3-------------|-(3)---------------(3)-----|
|
| Gtr III
|                  \0.5____/
|                                    ~~~~~~~~
| H    Q.   S S    Q      +Q   +Q   +Q
|---------------|---------------------------|
|---------------|---------------------------|
|-----------x-x-|--3------(3)--(3)--(3)-----|
|-----------x-x-|---------------------------|
|---------------|---------------------------|
|---------------|---------------------------|


  Eb5             F5          N.C.((C5)
   W               W          W
   |
   /

   W               W          H    H
|---------------|-----------|-----------|
|---------------|-----------|-----------|
|--8------------|-----------|-----------|
|--8------------|-10--------|-----------|
|--6------------|--8--------|-6----3----|
|---------------|-----------|-----------|
|
|~~~~~~
| +Q    Q  H       W          W
|---------------|-----------|-----------|
|---------------|-----------|-----------|
|-(3)\----------|-----------|-----------|
|---------------|-----------|-----------|
|---------------|-----------|-----------|
|---------------|-----------|-----------|


                                                       D.S. al Coda
  (D5)             N.C.
                                                       Gtrs I, II
  W                W                                   Q   Q  Q  Q
                                                       |   |  |  |
                                                       o   o  o  o

                   Gtrs I, II, III                     Gtr III
                   PM----------------------------|
  H    +H          S S S S S S S S S S S S S S S S  3x H.        Q
|--------------||-----------------------------------||--------------||
|--------------||o---------------------------------o||--------------||
|--------------||-----------------------------------||-7\-----------||
|--------------||-----------------------------------||--------------||
|-5----(5)\----||o-5-5-5-5-5-5-3-5-6-5-3-5-5-5-5-5-o||-5\-----------||
|--------------||-----------------------------------||--------------||


 Verse 2
  &
  C5                       Bb5
  Gtr II                   Gtr II
   W          +W           W          +W
   |           |           |           |
   /           /           /           /

  Gtrs I, III              Gtr I
   W          +W           W           H      H
|-----------|------------|----------|---------------|
|-----------|------------|----------|---------------|
|-----------|------------|----------|-/7----/10\----|
|-/5--------|-(5)--------|-3--------|---------------|
|-/3--------|-(3)--------|-1--------|-/5-----/8\----|
|-----------|------------|----------|---------------|


  C5                                            G5
  W                     +W                        W                +W
  |                      |                        |                 |
  /                      /                        /                 /

          TP
  Q  +S   E. E. E. E     H      Q   Q             W                +W
|---------------------|-----------------------|-----------------|----------|
|--------/x\-4--3-----|-----------------------|-----------------|----------|
|--------/x\-3--3--3--|--5\-------------------|-----------------|----------|
|-5--(5)-----5--3--3--|--5\----/8\--7\--------|---5-------------|--(5)-----|
|-3--(3)--------------|--3\----/8\--7\--------|---5-------------|--(5)-----|
|---------------------|-----------------------|---3-------------|--(3)-----|
|
|                       Gtr III
|                                       /0.5______________|
|                                                         ~~~~~~~~~~~~~~
| W                      H      Q   E   E        +H       H        +W
|---------------------|-----------------------|----------<7>----|-(<7>)----|
|---------------------|----------------<7>----|-(<7>)----(7)----|----------|
|---------------------|-----------------------|-----------------|----------|
|---------------------|-----------------------|-----------------|----------|
|---------------------|-----------------------|-----------------|----------|
|---------------------|-----------------------|-----------------|----------|


  Eb5              F5          N.C.((C5)   (D5)
   W                W          W           W
   |
   /

   \2.5
   Q     H.         W          H    H      H    +H
|-<7>------------|-----------|-----------|--------------|
|----------------|-----------|-----------|--------------|
|--8-------------|-----------|-----------|--------------|
|--8-------------|-10--------|-----------|--------------|
|--6-------------|--8--------|-6----3----|-5----(5)\----|
|----------------|-----------|-----------|--------------|
   W


                                                      Bridge
    N.C.                                               D5
                                        Gtrs I, II     Gtr II
    W                                   Q  Q  Q  Q     W
                                        |  |  |  |     |
                                        o  o  o  o     /

    Gtrs I, II, III                     Gtr III        Gtrs I, III
    PM----------------------------|     ~
                                                            |-3--|
    S S S S S S S S S S S S S S S S  3x W              H    Q  Q Q
||-----------------------------------||-------------||---------------|
||o---------------------------------o||-------------||---------------|
||-----------------------------------||-------------||-7---------7---|
||-----------------------------------||-------------||------9-10-----|
||o-5-5-5-5-5-5-3-5-6-5-3-5-5-5-5-5-o||-5-----------||---------------|
||-----------------------------------||-------------||---------------|


  Eb5(type 2)  C5(type 2)    D5         Bb5(type 2)
  W            W             W          W
  |            |             |          |
  /            /             /          /

                    |-3-|                    |-3-|
  W          a H    Q Q Q    W          H    Q Q Q
|----------|---------------|----------|-------------|
|----------|---------------|----------|-------------|
|-8--------|---5--------5--|-7--------|-3--------3--|
|----------|-x------7-8----|----------|------5-6----|
|----------|---------------|----------|-------------|
|----------|---------------|----------|-------------|


  C5(type 2) D5                         D5
  W          W          +W              W
  |          |           |              |
  /          /           /              /

                                ~~~
                                             |-3--|
  W          W          +H     +H       H    Q  Q Q
|----------|----------|---------------|---------------|
|----------|----------|---------------|-6---------6---|
|-5--------|----------|---------------|-7----7--8-7---|
|----------|----------|---------------|------9-10-----|
|----------|-5--------|-(5)----(5)----|---------------|
|----------|----------|---------------|---------------|


  Eb5(type 2)    C5(type 2)      D5
   W              W              W
   |              |              |
   /              /              /

                  ~~             ~
                       |-3--|
   H      H       H    Q Q  Q    H      H
|--------------|---------------|-------------|
|-/8----/11----|-10------------|-6-----10----|
|--8----/12----|-10----5-7--8--|-7----/10----|
|--------------|-------7-8-10--|-------------|
|--------------|---------------|-------------|
|--------------|---------------|-------------|


  Bb5(type 2)   C5(type 2)  D5
  W             W           W
  |             |           |
  /             /           /

  ~                         PM--------------|
       |-3-|
  H    Q Q Q    H    H      E. S E E E. S E E
|-------------|-----------|-------------------|
|-8-----------|------8----|-------------------|
|--------5-7--|-8---------|-7--5-5---5--------|
|------8------|-----------|--------8----7-8-7-|
|-------------|-----------|-------------------|
|-------------|-----------|-------------------|
|
| Gtr IV
|      |-3-|
| H    Q Q Q    H    H      W
|-------------|-----------|-------------------|
|-------------|-----------|-------------------|
|-8--------3--|-5----8----|-7-----------------|
|------5-6----|-----------|-------------------|
|-------------|-----------|-------------------|
|-------------|-----------|-------------------|
  W             W           W


  +W
   |
   /

   \0.5____/
                ~~~
   Q      +Q   +H
|--------------------------------||
|--------------------------------||
|--------------------------------||
|--0------(0)--(0)---------------||
|--------------------------------||
|--------------------------------||
|
| +W
|--------------------------------||
|---------------------------10h==||
|-(7)-----------------11h12------||
|--------------------------------||
|--------------------------------||
|--------------------------------||
   H            Q   S  S  S  S


   Guitar Solo 1
    N.C.(Gm)
    Gtrs I, II
     S  S  S  S  S  S  S  S  S  S  S  S  S  S  S  S
     |  |  |  |  |  |  |  |  |  |  |  |  |  |  |  |
     o  /  /  /  /  /  /  /  /  /  /  /  /  /  /  /

    Gtr IV
     PM----------------------------------------------
     S  S  S  S  S  S  S  S  S  S  S  S  S  S  S  S
||--------------------------10-------10-11----10-11-|
||o-11----10-11-13-10-11-13----11-13-------13-------|
||-----12-------------------------------------------|
||--------------------------------------------------|
||o-------------------------------------------------|
||--------------------------------------------------|


   E     S  S  S  S  S  S  E S S   S   S  S  S
   |     |  |  |  |  |  |  | | |   |   |  |  |
   /     /  /  /  /  /  /  / / /   /   /  /  /

 ----------------------|   ~~~~~~~~~~~
   S  S  S  S  S  S  S  S  Q      +S   S  S  S
|-15-10-----------------------------------------||
|-------11-10-------10----------------------10-o||
|-------------12-12----11-12-----(12)-11-12-----||
|-----------------------------------------------||
|----------------------------------------------o||
|-----------------------------------------------||


    N.C.
    Gtr I
     Q           Q           Q           Q
     |           |           |           |
     o           o           o           o

     PM----------------------------------------------
     S  S  S  S  S  S  S  S  S  S  S  S  S  S  S  S
||--------------------------10-------10-11----10-11-|
||o-11----10-11-13-10-11-13----11-13-------13-------|
||-----12-------------------------------------------|
||--------------------------------------------------|
||o-------------------------------------------------|
||--------------------------------------------------|


 1.
   Q           Q           H
   |           |           |
   o           o           o

 ----------------------|   ~~~~~~~~
   S  S  S  S  S  S  S  S  Q   +S   S  S  S
|-15-10---------------------------------------||
|-------11-10-------10-------------------10--o||
|-------------12-12----11-12--(12)-11-12------||
|---------------------------------------------||
|--------------------------------------------o||
|---------------------------------------------||


  2.
                                G
   Q           Q           H
   |           |           |
   o           o           o

   PM------------------|   ~~
   S  S  S  S  S  S  S  S  H
|-15-10-------------------------|
|-------11-10-------10----------|
|-------------12-12----11-12----|
|-------------------------------|
|-------------------------------|
|-------------------------------|


  C5(type 2)                          F5
 trs I, II
   H                                   H
   |                                   |
   /                                   /

   |--3--|  |--3--|  |--3--|  |--3--|  |--3--|  |--3--|  |--3--|  |--3--|
   S  S  S  S  S  S  S  S  S  S  S  S  S  S  S  S  S  S  S  S  S  S  S  S
|-15-11-13-15-13-11-15-11-13-15-13-11--------------------------------------|
|-------------------------------------13-10-11-13-11-10-13-10-11-13-11-10--|
|--------------------------------------------------------------------------|
|--------------------------------------------------------------------------|
|--------------------------------------------------------------------------|
|--------------------------------------------------------------------------|


  Bb5(type 2)                         Eb5(type 2)
   H                                   H
   |                                   |
   /                                   /

   |--3--|  |--3--|  |--3--|  |--3--|  |-3--|  |-3--|  |-3--|  |-3--|
   S  S  S  S  S  S  S  S  S  S  S  S  S S  S  S  S S  S S  S  S  S S
|-13-10-11-13-11-10-13-10-11-13-11-10---------------------------------|
|-------------------------------------11-8-10-11-10p8-11-8-10-11-10-8-|
|---------------------------------------------------------------------|
|---------------------------------------------------------------------|
|---------------------------------------------------------------------|
|---------------------------------------------------------------------|


  A5                                   D5
   H                                    H
   |                                    |
   /                                    /

   |--------7--------|  |-3--|  |-3--|  |-----3-----|  |-3-|  |3|
   S S  S  +S   S  S S  S  S S  S  S S  S S S.  T S S  S S S  S E
|-11-8-10-(10)-11-10-8-11-10-8-11-10-8----------------------------|
|--------------------------------------10p7h8--10-8-7-10-7-8-10-7-|
|-----------------------------------------------------------------|
|-----------------------------------------------------------------|
|-----------------------------------------------------------------|
|-----------------------------------------------------------------|


  N.C.(G5)              (A5)                  (Bb5)             (D5)
   Q                     Q                     Q                 Q
   |                     |                     |                 |
   o                     o                     o                 o

   |-3--|  |---5:2----|  |--3---|              |--3--|  |--3--|  |3-|
   S  S S  S  S S  S  S  S  S.  T  T  T  T  T  S  S  S  S  S  S  S  E  T  T  T  T
|---------------------------------------------------------------------------------|
|-11-10-8-11-10-8-10h11-13-10--11-13-11-10-11-15p11h13-15-13-11-15-13-15-13p11h13-|
|---------------------------------------------------------------------------------|
|---------------------------------------------------------------------------------|
|---------------------------------------------------------------------------------|
|---------------------------------------------------------------------------------|


  (Eb5)                               (A5)
   H                                   H
   |                                   |
   o                                   o

   |--3--|  |--3--|  |--3--|  |--3--|  |--3--|  |--3--|  |--3--|  |--3--|
   S  S  S  S  S  S  S  S  S  S  S  S  S  S  S  S  S  S  S  S  S  S  S  S
|-------------------------------------17-13-15-17-15-13-17-13-15-17-15-13-|
|-16-13-15-16-15-13-16-13-15-16-15p13-------------------------------------|
|-------------------------------------------------------------------------|
|-------------------------------------------------------------------------|
|-------------------------------------------------------------------------|
|-------------------------------------------------------------------------|


  (D5)                                (G5)
   H                                   H
   |                                   |
   o                                   o

   |--3--|  |--3--|  |--3--|  |--3--|  |--3--|  |--3--|  |--3--|  |--3--|
   S  S  S  S  S  S  S  S  S  S  S  S  S  S  S  S  S  S  S  S  S  S  S  S
|-------------------------------------15-11-13-15-13-11-15-11-13-15-13-11-|
|-15-11-13-15-13-11-15-11-13-15-13-11-------------------------------------|
|-------------------------------------------------------------------------|
|-------------------------------------------------------------------------|
|-------------------------------------------------------------------------|
|-------------------------------------------------------------------------|


  (C5)                             (F#5)
   H                                 H
   |                                 |
   o                                 o

                                     ~~~
   |3-|  |--3--|  |--3--|  |--3--|
   S  E  S  S  S  S  S  S  S  S  S   H
|----------------------------------/14----|
|-13-10-13-11-10-13-10-11-13-11-10--------|
|-----------------------------------------|
|-----------------------------------------|
|-----------------------------------------|
|-----------------------------------------|


  N.C.(Cm)                          (Bb)
  Gtr IV
                  T                  T               T
  |-3--|  |3|     |-3--| |---3---|   |-3--|  |-3--|  |-3--|  |3|
  S  S S  S E  a  S S  S S  S a  S   S  S S  S S  S  S  S S  S E
|-8h11p8h11p8h11-15p8h11p8h11p8s(6)-15p10p6h10p6h10-15p10p6h10p6-|
|----------------------------------------------------------------|
|----------------------------------------------------------------|
|----------------------------------------------------------------|
|----------------------------------------------------------------|
|----------------------------------------------------------------|
|
| Gtr I
| H                                  H
|----------------------------------------------------------------|
|----------------------------------------------------------------|
|----------------------------------------------------------------|
|----------------------------------------------------------------|
|-6----------------------------------5---------------------------|
|-8----------------------------------6---------------------------|
  H                                  H


  N.C.(Am)                   (Gm)
   T          T               T               T
   |3| |-3-|  |--3--| |-3--|  |-3--|  |-3--|  |-3--| |--3---|
   S E S S S  S  S  S S  S S  S  S S  S S  S  S S  S S   S  S
|-15p5h8p5h8-14p11p10p8h10-6h15p10p6h10p6h10-15p6h10p6h(10)p6-|
|-------------------------------------------------------------|
|-------------------------------------------------------------|
|-------------------------------------------------------------|
|-------------------------------------------------------------|
|-------------------------------------------------------------|
|
|  H                          H
|-------------------------------------------------------------|
|-------------------------------------------------------------|
|-------------------------------------------------------------|
|-----------------------------5-------------------------------|
|--3----------------------------------------------------------|
|--5--------------------------3-------------------------------|
   H                          H


  N.C.(Cm)                      (D5)
                  T              T                     T
        |-3--|    |-3--| |-3--|  |-3--|  |-3--|  |3|
   S S  S S  S a  S S  S S  S S  S  S S  S S  S  S E   E
|-11p8h11p8h11p8-15p8h11p8h11p8-15p10p6h10p6h10-15p6-(15)\-|
|----------------------------------------------------(15)\-|
|----------------------------------------------------------|
|----------------------------------------------------------|
|----------------------------------------------------------|
|----------------------------------------------------------|
|
|  H                             H
|----------------------------------------------------------|
|----------------------------------------------------------|
|----------------------------------------------------------|
|--------------------------------7-------------------------|
|--6-----------------------------5-------------------------|
|--8-------------------------------------------------------|
   H                             H


  (A)                     (D)
                           ~~
   S  S  S  S  S  S  S  S  H
|-15p12----12-18p15-------------|
|-------14----------17----15----|
|----------------------18-------|
|-------------------------------|
|-------------------------------|
|-------------------------------|
|
|  H                       H
|-------------------------------|
|-------------------------------|
|-------------------------------|
|--------------------------4----|
|--4-----------------------5----|
|--5----------------------------|
   H                       H


  N.C.(Gm)
  Gtrs I, II
  S S  S  S S S  S   S  S S S S  S S S S
  | |  |  | | |  |   |  | | | |  | | | |
  o /  /  / / /  /   /  / / / /  / / / /

  Gtr IV
                                     |-3-|
  S S  S  S E   +E      e   e    E   E   S
|-6--------------------/6---8---10---8---6-|
|---8-(8)----------------------------------|
|------7--8-7---(7)\-----------------------|
|------------------------------------------|
|------------------------------------------|
|------------------------------------------|


  (D5)
  S S  S  S S S  S   S   S S  S S  S S  S S
  | |  |  | | |  |   |   | |  | |  | |  | |
  o /  /  / / /  /   /   / /  / /  / /  / /

            ~
                                        |-3-|
  S S  S  S E   +E     a e    e    E    E   S
|-8-6-(6)----------------8---10---11---10---8-|
|------8---------------x----------------------|
|---------8-7---(7)\--------------------------|
|---------------------------------------------|
|---------------------------------------------|
|---------------------------------------------|


  N.C.(Gm)
   S   S    S S S S  S   S  S S  S S  S S  S S
   |   |    | | | |  |   |  | |  | |  | |  | |
   o   /    / / / /  /   /  / /  / /  / /  / /

   |--3---|                                |-3--|
   S S    S S S E   +E      E    E    E    E    S
|-10p8---------------------10---11---13---11---10-|
|--------11---------------------------------------|
|-----------7-8-7---(7)\--------------------------|
|-------------------------------------------------|
|-------------------------------------------------|
|-------------------------------------------------|


  (Eb5)              (C5)        (D5)     (F#5)
   S  S  S    S       S  S  S  S  S S S S  S  S S S
   |  |  |    |       |  |  |  |  | | | |  |  | | |
   o  /  /    /       o  /  /  /  o / / /  o  / / /

                                  ~~
         |---3----|
   S  S  S  S    +S   S  S  S  S  Q        Q
|-11------------------------------------------------|
|----13-----------------14p11-10--------------------|
|-------11-12---(12)-14----------12-------11\-------|
|---------------------------------------------------|
|---------------------------------------------------|
|---------------------------------------------------|


  N.C.(Gm)
    S S S S S S  S   S   S S S S  S S S S
    | | | | | |  |   |   | | | |  | | | |
    o / / / / /  /   /   / / / /  / / / /

                                      |-3-|
  a S S S S E   +E     a e   e    e   E   S
|---6--------------------6---8---10---8---6-|
|-x---8----------------x--------------------|
|-x-----7-8-7---(7)\------------------------|
|-------------------------------------------|
|-------------------------------------------|
|-------------------------------------------|


  (D5)
   S S S S S S  S   S S S  S S  S S  S S
   | | | | | |  |   | | |  | |  | |  | |
   o / / / / /  /   / / /  / /  / /  / /

         PM~
                                     |-3-|
   S S S S E   +E     e    e    E    E   S
|-10p8p6--------------8---10---11---10---8--|
|-------------------------------------------|
|--------8-7---(7)\-------------------------|
|-------------------------------------------|
|-------------------------------------------|
|-------------------------------------------|


  N.C.(Gm)
   S   S    S S S  S  S  S  S S  S S  S S  S S
   |   |    | | |  |  |  |  | |  | |  | |  | |
   o   /    / / /  /  /  /  / /  / /  / /  / /

            PM|
   |--3---|                                |-3--|
   S S    S S S E     E     E    E    E    E    S
|-10p8---------------------10---11---13---11---10-|
|--------11----------/x/--------------------------|
|-----------7-8-7\--------------------------------|
|-------------------------------------------------|
|-------------------------------------------------|
|-------------------------------------------------|


  (C5)                 (A5)       (Bb5)      (G5)
   S    S     S    S    S  S  S S  S  S S  S  S S  S  S
   |    |     |    |    |  |  | |  |  | |  |  | |  |  |
   o    /     /    /    o  /  / /  o  / /  /  o /  /  /

                                        PM-----------|
   |---3---|  |3-|
   S  S    S  S  E   a  S  S  E    S  S S  S  S S  S  S
|-11h13---------------------------10---------------------|
|---------13-----------10h11-13------11---------8-10-11--|
|------------10-12---x------------------8-10-10----------|
|--------------------------------------------------------|
|--------------------------------------------------------|
|--------------------------------------------------------|


  N.C.(A5) (F#5)      (G5)       (C5)     (D5)
  S  S S S  S S  S  S  S S S   S   S S  S  S
  |  | | |  | |  |  |  | | |   |   | |  |  |
  o  / / /  o /  /  /  o / /   /   o /  /  o

       PM----------|
  S  S S S  S S  S  S  S S T T S   E    S  S
|-8------------------------------------------|
|---10--------8-11-10-11---------------------|
|------7-8-10------------7-7s8s7-------12-11-|
|--------------------------------/14---------|
|--------------------------------------------|
|--------------------------------------------|


    S  S S S   S   S S S S S S S  S S  S S
    |  | | |   |   | | | | | | |  | |  | |
    /  / / /   /   / / / / / / /  / /  / /

               \7___________________________
    ~~~~~~~~~~~~~~~
   +Q         +H                  E    E
|------------------------------------------|
|--------------------------------hx---hx---|
|-(11)-------(11)-----------------x----x---|
|--------------------------------hx----x---|
|------------------------------------------|
|------------------------------------------|


  N.C.(D5)
  S S S     S  S   S S S  S  S S S S S S S
  | | |     |  |   | | |  |  | | | | | | |
  o / /     /  /   / / /  /  / / / / / / /

  |   \0.5/    \2______________________|
                          ~~~
  E   E       +Q         +Q.           E
|------------------------------------------|
|-x------------------------------------0---|
|-x---0-------(0)--------(0)-----------0---|
|-----0-------(0)--------(0)---------------|
|------------------------------------------|
|------------------------------------------|


  D5(type 2)
  W
  |
  /

  /0.5\                  /0.5\       /0.5\
                  PM--|
        |-3-|     |-3-|        |-3-|       |-3-|
  E     S S S S S S S S  E     S S S E     S S S
|------------------------------------------------|
|------------------------------------------------|
|-7-----8-7-5-7-5-------/7-----8-7-5-7-----8-7-5-|
|-----------------7-5-4--------------------------|
|------------------------------------------------|
|------------------------------------------------|


                      Verse 3
                       C5                               Bb5
                       Gtr II
  +W                    W                  +W           W
   |                    |                   |           |
   /                    /                   /           /

                       Gtr I
   \2/                  \3.5
          ~~~~~~~
   Q.    +E  +H        +E    +E  Q  H      +W           W
|-------------------||-------------------|------------|------|
|-------------------||-------------------|------------|------|
|--7-----(7)-(7)----||-(7)---(7)---------|------------|------|
|-------------------||--5----------------|-(5)--------|-3----|
|-------------------||--3----------------|-(3)--------|-1----|
|-------------------||-------------------|------------|------|
                        W


                 C5                                    G5
  +W             W                    +W               W
   |             |                     |               |
   /             /                     /               /

         TP
  +H     H       Q  +E  S S E. E. E    H     Q   Q     W
|--------------|--------------------|----------------|------|
|--------x\----|--------3-3-4--3----|----------------|------|
|--------------|--------3-3-3--3--3-|--5-------------|------|
|-(3)----------|-5--(5)---3-5--3--3-|--5----/8\--7\--|------|
|-(1)----------|-3--(3)-------------|--3-----x---x---|-5----|
|--------------|--------------------|-------/6\--5\--|-3----|


              Eb5        F5          N.C.((C5)   (D5)
  +W          W           W          W           W
   |          |
   /          /

   W          W           W          H    H      W
|-----------|----------|-----------|-----------|-------|
|-----------|----------|-----------|-----------|-------|
|-----------|-8--------|-----------|-----------|-------|
|--5--------|-8--------|-10--------|-----------|-------|
|--5--------|-6--------|--8--------|-6----3----|-5\----|
|--3--------|----------|-----------|-----------|-------|


    N.C.                                D5(type 2)
    Gtr I
    W                                   W
    |                                   |
    o                                   /

    Gtr II
    PM----------------------------|
    S S S S S S S S S S S S S S S S  3x Q  Q  Q  Q
||-----------------------------------||-------------|
||o---------------------------------o||-------------|
||-----------------------------------||-------------|
||-----------------------------------||-------------|
||o-5-5-5-5-5-5-3-5-6-5-3-5-5-5-5-5-o||-5--6--3-----|
||-----------------------------------||----------5--|


 Bridge
  D5             Eb5(type 2)  C5(type 2)    D5
  Gtr II
  W              W            W             W
  |              |            |             |
  /              /            /             /

  Gtrs I, III
       |-3--|                      |-3-|
  H    Q  Q Q    W          a H    Q Q Q    W
|--------------|----------|---------------|------|
|--------------|----------|---------------|------|
|-7---------7--|-8--------|---5--------5--|-7----|
|------9-10----|----------|-x------7-8----|------|
|--------------|----------|---------------|------|
|--------------|----------|---------------|------|


  Bb5(type 2)   C5(type 2) D5
  W             W          W          +W
  |             |          |           |
  /             /          /           /

       |-3-|
  H    Q Q Q    W          W          +H      H
|-------------|----------|----------|---------------||
|-------------|----------|----------|---------------||
|-3--------3--|-5--------|----------|---------------||
|------5-6----|----------|----------|--------12\----||
|-------------|----------|-5--------|-(5)-----------||
|-------------|----------|----------|---------------||


 Guitar Solo 2
  G5(type 2)
  Gtrs I, II
   W
   |
   /

  Gtr IV
             ~~~~
   H        +Q.    S  S
|-13b15r===(13)---11h13-|
|-----------------------|
|-----------------------|
|-----------------------|
|-----------------------|
|-----------------------|


  C5(type 2)
   W
   |
   /

                                 |--3---|   |--3--|  |--3--|
   S  S  S  S  S  S  S  S  S  S  S  S  +S   S  S  S  S S   S
|-11p10h11p10h11p10----10--------------------------------------|
|-------------------13----11-10h11p10-(10)---------------------|
|------------------------------------------12-10h12p10-8s(10)--|
|--------------------------------------------------------------|
|--------------------------------------------------------------|
|--------------------------------------------------------------|


  F5                                    Bb5(type 2)
  W                                      W
  |                                      |
  /                                      /

                            \0.5/ /1_____|  /0.5\
                                                                 ~~
  |--3--|           |--3--|
  T S T S  S S E  E E S S E E     E     +E  E     +S  S S S S S  E  S   a S E
|-------------------------------------|---------------------------------------|
|-------------------------------------|---------------------------------------|
|-8p7h8p7----7------------------------|-----------------------------------3-5-|
|---------10---8s10s8p7h8p7-----------|---------------------------------x-----|
|---------------------------8-----8---|-(8)-8-----(8)-6s5-3h5p3---------------|
|---------------------------8---------|-------------------------\4-(4)/-------|


  Eb5(type 2)               D5                      C5(type 2)
   W                         H                      H
   |                         |                      |
   /                         /                      /

                 ~~~
                                              |-3-| |-3-| |-3-| |-3--|
  +E. S T S T E +Q   a Q    +E  S S S S a a a S S S S S S S S S E S +E.
|-------------------------|----------------------------------------------|
|----------------------6--|-(6)-4p3h4p3-------------------------3h4-(4)--|
|-(5)p3h5p3s2-3-(3)--x----|-------------------3h5p3s2h3p2----------------|
|--------------------x----|-----------------x-------------2h3p0----------|
|-------------------------|---------------x------------------------------|
|-------------------------|-------------x--------------------------------|


  Bb5(type 2)     Eb5(type 2)                   D5      G5(type 2)
   H              H                    H        H       W
   |              |                    |        |       |
   /              /                    /        /       /

                                                   ~
                                                              |-3--|
  +S  S S S a E.S E S S S S     +E    +Q   +Q   Q  Q    H    +Q  Q Q
|-------------6h8p6s5h6p5-----------|-----------------|---------------|
|-(4)p3h4p3-x-------------8b10==(8)-|-(8)--(8)r=8p=7--|---------------|
|-----------------------------------|-----------------|---------------|
|-----------------------------------|-----------------|-5----(5)-7-8--|
|-----------------------------------|-----------------|---------------|
|-----------------------------------|-----------------|-3----(3)-5-6--|


  C5(type 2)  F5                  Bb5(type 2)    Eb5(type 2)
   W            W                  W              W
   |            |                  |              |
   /            /                  /              /

                       |--3--|
   W            H      Q  Q  Q     H      H       H      H
|-----------|-------------------|--------------|--------------|
|-----------|-------------------|--------------|--------------|
|-----------|-------------------|--------------|-12----/15----|
|-10--------|-/15----/17-15-13--|-12----/15----|--------------|
|-----------|-------------------|--------------|-10----/13----|
|--8--------|-/13----/15-13-11--|-10----/13----|--------------|


  D5
  W          Q  Q  Q   Q     Q  Q         H
  |          |  |  |   |     |  |         |
  /          o  o  o   o     o  o         o

                                               |-3-|
  W          Q  Q  Q   Q     H       a    Q.   S S S
|----------|--------------|---------------------------||
|----------|--------------|--------------------8p7h8--||
|-7--------|-5--7--8--12--|-12-----(12)s(11)----------||
|----------|--------------|---------------------------||
|-5--------|-3--5--6--10--|-10-----(10)s=(9)----------||
|----------|--------------|---------------------------||


 Outro
  N.C.
  Gtr IV
   S S S S S S S S  S S S S   S S  S S
|----------8-------10--------11p8----8-|
|-11-8p7h8---8p7h8----8p7h8/------11---|
|--------------------------------------|
|--------------------------------------|
|--------------------------------------|
|--------------------------------------|
|
| Gtrs I, II
|  Q       Q        Q         Q
|--------------------------------------|
|--------------------------------------|
|--------------------------------------|
|--------------------------------------|
|-----------------------------6--------|
|--3-------5--------6------------------|


  Q=128
  (Gm)
   T          T          T           T
   S  S S  S  S  S S  S  S   S S  S  S  S S  S
|-15p10p6h10-15p10p6h10-15p=10p6h10-15p10p6h10-|
|----------------------------------------------|
|----------------------------------------------|
|----------------------------------------------|
|----------------------------------------------|
|----------------------------------------------|
|
|  H                     H
|----------------------------------------------|
|----------------------------------------------|
|------------------------3---------------------|
|------------------------5---------------------|
|----------------------------------------------|
|--3--------------------(3)--------------------|


  (Gm)
   T           T          T          T
   S   S S  S  S  S S  S  S  S S  S  S  S S  S
|-15p=10p6h10-15p10p6h10-15p10p6h10-15p10p6h10-|
|----------------------------------------------|
|----------------------------------------------|
|----------------------------------------------|
|----------------------------------------------|
|----------------------------------------------|
|
|  W
|----------------------------------------------|
|--3-------------------------------------------|
|--3-------------------------------------------|
|-(5)------------------------------------------|
|----------------------------------------------|
|-(3)------------------------------------------|


   T   T              T           T         ~~~~~~~~~~
   |--3---|  |--3--|  |--3--|  |--3--|  |-3-|
   S   S  S  S  S  S  S  S  S  S  S  S  S S S +E  +Q
|-15--15p14p10h11h14-15p14p11p10------------------------:
|--------------------------------13p11p10s8-7-(7)-(7)---:
|-------------------------------------------------------:
|-------------------------------------------------------:
|-------------------------------------------------------:
|-------------------------------------------------------:
|
| +W
|-------------------------------------------------------:
|-(3)---------------------------------------------------:
|-(3)---------------------------------------------------:
|-(5)---------------------------------------------------:
|-------------------------------------------------------:
|-(3)---------------------------------------------------:


                                   H.=H
  Eb5                                     Eb5(tD5e 2) C5(tyA5 2)
  Gtrs I, II
  W                     +W                H    H      H    H
  |                      |                |    |      |    |
  /                      /                /    /      /    /

  Gtr IV
                                                           \1.5
  H     a   H        a   H      a  H      H    H      H    H
|----------------:----------------------:-----------:--------------:
|----------------:----------------------:-----------:--------------:
|-8----(8)s10----:-(10)s12----(12)s8----:-8----7----:-5------------:
|----------------:----------------------:-----------:--------------:
|-6----(6)s=8----:--(8)s10----(10)s6----:-6----5----:-3----0-------:
|----------------:----------------------:-----------:--------------:


  G
   W               +W             +W
   |                |              |
   /                /              /

                                   <
        ~~~~
   Q   +H.         +W              W
|---------------:-------------:---------------:
|---------------:-------------:---------------:
|-12--(12)------:-(12)--------:-([12])--------:
|-12--(12)------:-(12)--------:-([12])--------:
|-10--(10)------:-(10)--------:--(10)---------:
|---------------:-------------:---------------:


    +W              +H               H
     |               |
     /               /

                                     \1.5__________
                            ~~~~~~
    +W              +E     +Q.      +q      Q
|---------------:--------------------------------*|
|---------------:--------------------------------*|
|-([12])--------:-([12])-([12])---([12])---------*|
|-([12])--------:-([12])-([12])---([12])---------*|
|--(10)---------:--(10)--------------------------*|
|---------------:--------------------------------*|



Duration Legend
---------------
W - whole; H - half; Q - quarter; E - 8th; S - 16th; T - 32nd; X - 64th; a - acciaccatura
+ - note tied to previous; . - note dotted; .. - note double dotted
Uncapitalized letters represent notes that are staccato (1/2 duration)
Irregular groupings are notated above the duration line
Duration letters will always appear directly above the note/fret number it represents the
duration for.  Duration letters with no fret number below them represent rests.  Multi-
bar rests are notated in the form Wxn, where n is the number of bars to rest for.  Low
melody durations appear below the staff

Tablature Legend
----------------
 h   - hammer-on
 p   - pull-off
 b   - bend
 pb  - pre-bend
 r   - bend release (if no number after the r, then release immediately)
 /\  - slide into or out of (from/to "nowhere")
 s   - legato slide
 S   - shift slide
 - natural harmonic
[n]  - artificial harmonic
n(n) - tapped harmonic
 ~   - vibrato
 tr  - trill
 T   - tap
 TP  - trem. picking
 PM  - palm muting
\n/  - tremolo bar dip; n = amount to dip
 \n  - tremolo bar down
 n/  - tremolo bar up
/n\  - tremolo bar inverted dip
 =   - hold bend; also acts as connecting device for hammers/pulls
 <> - volume swell (louder/softer)
 x   - on rhythm slash represents muted slash
 o   - on rhythm slash represents single note slash

Misc Legend
-----------
 |  - bar
||  - double bar
||o - repeat start
o|| - repeat end
*|  - double bar (ending)
 :  - bar (freetime)
 $  - Segno
 &  - Coda
Tempo markers -  = BPM(8/16=s8/s16), where s8 = swing 8ths, s16 = swing 16ths

comments
We did not receive enough feedback on this tab! Please rate:
print report bad tab
1 2 3 4 5
I want to post or [tab]
guest
You may want to rate the tab now too:
select rating
Please do not post tabs as comments. Select "correction" instead!