Oops, an error
Loading. Please wait.

El Sueno De La Gitana Tab

ver2
ver2

Whole song

More versions @911Tabs.com
2,670 views 3 this week
no commentswrite comment
1 2 3 4 5
please rate
add to favorites launch autoscroll
font size
0
reset
Autoscroll
+/-
esc
set tempo
stop
Contributor
WARNING: You are trying to view
                                    content from Ultimate-Guitar.com
                                    in an unauthorized application,
                                    which is prohibited.

                                    Please use an official Ultimate
                                    Guitar Tabs application for iPhone,
                                    iPad or Android to access legitimate
                                    chords, guitar, bass, and drum tabs
                                    from Ultimate-Guitar.com database.

                                    Type "ultimate guitar tabs" in Apple
                                    App Store's or Android Market's
                                    search to find the application.
#----------------------------------PLEASE NOTE---------------------------------#
#This file is the author's own work and represents their interpretation of the #
#song. You may only use this file for private study, scholarship, or research. #
#------------------------------------------------------------------------------#

EL SUEÑO DE LA GITANA
As recorded by Rata Blanca
(From the 1988 Album RATA BLANCA)

Transcribed by Rogelio Dionicio
	

Words and Music by Walter Giardino.

G5
3 5 5 x x x
	
C5
x 3 5 5 x x
	
D5
x 5 7 7 x x
	
Eb5
x 6 8 8 x x

Bb5
6 8 8 x x x
	
F5
1 3 3 x x x
	
A5
5 7 7 x x x

Gtr I (E A D G B E) - 'Distortion Guitar 1 - Walter Giardino'
Gtr II (E A D G B E) - 'Distortion Guitar 2 - Sergio Berdichevsky'

   Intro
    Moderately Fast Rock Q.=140
    $
    G5
   4/4
    Gtr II
     W                        +W
     |                         |
     /                         /

    Gtr I
                                                 PM|
     E  E  E  E  E  E  E  E    E  E  E  E  E  E  E  E
||--------------------------|-------------------------|
||o-------------------------|-------------------------|
||--15p12----17p12----15p12-|----14p12----15p12-------|
||--------12-------12-------|-12-------12-------12-12-|
||o-------------------------|-------------------------|
||--------------------------|-------------------------|


  G5
   W                        +W
   |                         |
   /                         /

                                               PM|
   E  E  E  E  E  E  E  E    E  E  E  E  E  E  E  E
|-------------------------|--------------------------|
|-------------------------|--------------------------|
|-15p12----17p12----15p12-|----14p12----15p12--------|
|-------12-------12-------|-12-------12-------12-12--|
|-------------------------|--------------------------|
|-------------------------|--------------------------|


  Eb5
   W                   +W
   |                    |
   /                    /

                                      PM|
   E E E  E E E  E E    E  E E E  E E E E
|--------------------|--------------------|
|--------------------|--------------------|
|-12p8---10p8---12p8-|----10p8---12p8-----|
|------8------8------|--8------8------8-8-|
|--------------------|--------------------|
|--------------------|--------------------|


  Eb5
   W                   +W
   |                    |
   /                    /

                                      PM|
   E E E  E E E  E E    E  E E E  E E E E
|--------------------|---------------------|
|--------------------|---------------------|
|-12p8---10p8---12p8-|----10p8---12p8------|
|------8------8------|--8------8------8-8--|
|--------------------|---------------------|
|--------------------|---------------------|


  C5                                C5
  W                 +W              W                 +W
  |                  |              |                  |
  /                  /              /                  /

                             ~                                 ~
  E E E E E E E E    E E E E H      E E E E E E E E    E E E E H
|-----------------|---------------|-----------------|---------------|
|-----------------|---------------|-----------------|---------------|
|-8p5---7p5---8p5-|----7-5---8----|-8p5---7p5---8p5-|----7p5---8----|
|-----5-----5-----|--5-----5------|-----5-----5-----|--5-----5------|
|-----------------|---------------|-----------------|---------------|
|-----------------|---------------|-----------------|---------------|


  1.
  D5
   W                  +W
   |                   |
   /                   /

   E E E E E E  E E    E E E E  E E Q
|-------------------|------------------|
|-------------------|------------------|
|-11p7---9p7---11p7-|----9p7---11p7----|
|------7-----7------|--7-----7------7--|
|-------------------|------------------|
|-------------------|------------------|


  D5
   W                   +W
   |                    |
   /                    /

                                  ~~
   E E E  E E E  E E    E  E E E  H
|--------------------|------------------||
|-10p7---11p7---10p7-|----11p7---10----o||
|------7------7------|--7------7--------||
|--------------------|------------------||
|--------------------|-----------------o||
|--------------------|------------------||


  2.                H=H                 Q.=143
  D5                                      D5            C5
   W                  +W                    E  E E E      E  E  E E
   |                   |                    |  | | |      |  |  | |
   /                   /                    o  / / /      o  /  / /

                                                                ~~~~~
   E E E E E E  E E    E  H.          E    +H         a  +Q     Q
|-------------------|-------------------|---------------------------|
|-------------------|----13b15=======13-|-(13)-------13r(13)---11---|
|-11p7---9p7---11p7-|-------------------|---------------------------|
|------7-----7------|--7----------------|---------------------------|
|-------------------|-------------------|---------------------------|
|-------------------|-------------------|---------------------------|


                                                    To Coda
  Bb5                            A5
   E       E       E       E       E       E       E     E
   |       |       |       |       |       |       |     |
   o       /       /       /       o       /       /     /

   \0.5/   \0.5/   \0.5/   \0.5/   \0.5/   \0.5/   \0.5/
 ~~~~~~~~~~~~~~~~~~~~~~~~~~~~~~~~~~~~~~~~~~~~~~~~~~~~~~~~
   E      +E      +E      +E      +E      +E      +Q
|------------------------------------------------------------||
|-10-----(10)----(10)----(10)----(10)----(10)----(10)--------||
|------------------------------------------------------------||
|------------------------------------------------------------||
|------------------------------------------------------------||
|------------------------------------------------------------||


 1st Verse
  G5                                  C5                G5
 4/4
  Gtr II
  E E E E E E E E   E E E E E E E E   E E E E E E E E   E E E E E E E E
  | | | | | | | |   | | | | | | | |   | | | | | | | |   | | | | | | | |
  / o / / / / / /   / / / / / / / /   o / / / / / / /   / o / / / / / /

  Gtr I
  W                 W                 W                 W
|-----------------|-----------------|-----------------|-----------------|
|-----------------|-----------------|-----------------|-----------------|
|-----------------|-----------------|-----------------|-----------------|
|-----------------|-----------------|-----------------|-----------------|
|-----------------|-----------------|-----------------|-----------------|
|-----------------|-----------------|-----------------|-----------------|


  Eb5               Bb5               F5
  E E E E E E E E   E E E E E E E E   E E E E E E E E   E E E E E E E E
  | | | | | | | |   | | | | | | | |   | | | | | | | |   | | | | | | | |
  / o / / / / / /   o / / / / / / /   / o / / / / / /   / / / / / / / /

  W                 W                 W                 W
|-----------------|-----------------|-----------------|------------------|
|-----------------|-----------------|-----------------|------------------|
|-----------------|-----------------|-----------------|------------------|
|-----------------|-----------------|-----------------|------------------|
|-----------------|-----------------|-----------------|------------------|
|-----------------|-----------------|-----------------|------------------|


  D5                                  D5
  E E E E E E E E   E E E E E E E E   E E E E E E E E   E E E E E E E E
  | | | | | | | |   | | | | | | | |   | | | | | | | |   | | | | | | | |
  / o / / / / / /   / / / / / / / /   o / / / / / / /   / / / / / / / /

  W                 W                 W                 W
|-----------------|-----------------|-----------------|------------------|
|-----------------|-----------------|-----------------|------------------|
|-----------------|-----------------|-----------------|------------------|
|-----------------|-----------------|-----------------|------------------|
|-----------------|-----------------|-----------------|------------------|
|-----------------|-----------------|-----------------|------------------|


  G5                Eb5               D5
  E E E E E E E E   E E E E E E E E   E E E E E E E E   E E E E E E E E
  | | | | | | | |   | | | | | | | |   | | | | | | | |   | | | | | | | |
  / o / / / / / /   / o / / / / / /   o / / / / / / /   / / / / / / / /

  W                 W                 W                 W
|-----------------|-----------------|-----------------|------------------|
|-----------------|-----------------|-----------------|------------------|
|-----------------|-----------------|-----------------|------------------|
|-----------------|-----------------|-----------------|------------------|
|-----------------|-----------------|-----------------|------------------|
|-----------------|-----------------|-----------------|------------------|


  G5                                  C5                G5
  E E E E E E E E   E E E E E E E E   E E E E E E E E   E E E E E E E E
  | | | | | | | |   | | | | | | | |   | | | | | | | |   | | | | | | | |
  / o / / / / / /   / / / / / / / /   o / / / / / / /   / o / / / / / /

  W                 W                 W                 W
|-----------------|-----------------|-----------------|------------------|
|-----------------|-----------------|-----------------|------------------|
|-----------------|-----------------|-----------------|------------------|
|-----------------|-----------------|-----------------|------------------|
|-----------------|-----------------|-----------------|------------------|
|-----------------|-----------------|-----------------|------------------|


  Eb5               Bb5               F5
  E E E E E E E E   E E E E E E E E   E  E E E  E E E E   E  E E E E E E E
  | | | | | | | |   | | | | | | | |   |  | | |  | | | |   |  | | | | | | |
  / o / / / / / /   o / / / / / / /   /  o / /  / / / /   /  / / / / / / /

  Gtr I
---------------------------------------------|
  W                 W                 Q.     Q.     Q     H        H
|-----------------|-----------------|-------------------|-------------------|
|-----------------|-----------------|-------------------|-------------------|
|-----------------|-----------------|-------------------|-------------------|
|-----------------|-----------------|-3------5------3---|-7\----------------|
|-----------------|-----------------|-------------------|-------------------|
|-----------------|-----------------|-------------------|-------------------|


  D5                                  D5
  E E E E E E E E   E E E E E E E E   E E E E E E E E   E E E E E E E E
  | | | | | | | |   | | | | | | | |   | | | | | | | |   | | | | | | | |
  / o / / / / / /   / / / / / / / /   o / / / / / / /   / / / / / / / /

  W                 W                 W                 W
|-----------------|-----------------|-----------------|------------------|
|-----------------|-----------------|-----------------|------------------|
|-----------------|-----------------|-----------------|------------------|
|-----------------|-----------------|-----------------|------------------|
|-----------------|-----------------|-----------------|------------------|
|-----------------|-----------------|-----------------|------------------|


  G5                Eb5
  E E E E E E E E   E E E E E E E E
  | | | | | | | |   | | | | | | | |
  / o / / / / / /   / o / / / / / /

  Gtr I
  W                 W
|-----------------|-----------------|
|-----------------|-----------------|
|-----------------|-----------------|
|-----------------|-----------------|
|-----------------|-----------------|
|-----------------|-----------------|


  D5
   E  E E E  E E E   E     E E E E E E E E
   |  | | |  | | |   |     | | | | | | | |
   o  / / /  / / /   /     / / / / / / / /

   ~~~                     ~
                 |--3--|
   Q.     Q.     E E   E   W
|------------------------|------------------||
|------------------------|------------------||
|------------------------|------------------||
|-/5------7------5h7p==5-|-4----------------||
|------------------------|------------------||
|------------------------|------------------||


   Chorus
    F5                                  Bb
    E E E E E E E E   E E E E E E E E   E E E E E E E E   E E E E E E E E
    | | | | | | | |   | | | | | | | |   | | | | | | | |   | | | | | | | |
    / o / / / / / /   / / / / / / / /   o / / / / / / /   / / / / / / / /

    W                 W                 W                 W
||------------------|-----------------|-----------------|-----------------|
||o-----------------|-----------------|-----------------|-----------------|
||------------------|-----------------|-----------------|-----------------|
||------------------|-----------------|-----------------|-----------------|
||o-----------------|-----------------|-----------------|-----------------|
||------------------|-----------------|-----------------|-----------------|


  D5                                  G5
  E E E E E E E E   E E E E E E E E   E E E E E E E E   E E E E E E E E
  | | | | | | | |   | | | | | | | |   | | | | | | | |   | | | | | | | |
  / o / / / / / /   / / / / / / / /   / o / / / / / /   / / / / / / / /

  W                 W                 W                 W
|-----------------|-----------------|-----------------|------------------|
|-----------------|-----------------|-----------------|------------------|
|-----------------|-----------------|-----------------|------------------|
|-----------------|-----------------|-----------------|------------------|
|-----------------|-----------------|-----------------|------------------|
|-----------------|-----------------|-----------------|------------------|


  Eb5                                 G5
  E E E E E E E E   E E E E E E E E   E E E E E E E E   E E E E E E E E
  | | | | | | | |   | | | | | | | |   | | | | | | | |   | | | | | | | |
  / o / / / / / /   / / / / / / / /   / o / / / / / /   / / / / / / / /

  W                 W                 W                 W
|-----------------|-----------------|-----------------|------------------|
|-----------------|-----------------|-----------------|------------------|
|-----------------|-----------------|-----------------|------------------|
|-----------------|-----------------|-----------------|------------------|
|-----------------|-----------------|-----------------|------------------|
|-----------------|-----------------|-----------------|------------------|


  1.
  Eb5               A5                D5
  E E E E E E E E   E E E E E E E E   E E E E E E E E
  | | | | | | | |   | | | | | | | |   | | | | | | | |
  / o / / / / / /   o / / / / / / /   / o / / / / / /

  W                 W                 W
|-----------------|-----------------|-----------------|
|-----------------|-----------------|-----------------|
|-----------------|-----------------|-----------------|
|-----------------|-----------------|-----------------|
|-----------------|-----------------|-----------------|
|-----------------|-----------------|-----------------|


                     2.
  D5                  Eb5
  E E E E E E E E      E E E E E E E E
  | | | | | | | |      | | | | | | | |
  o / / / / / / /      / o / / / / / /

  W                    W
|------------------||--------------------|
|-----------------o||--------------------|
|------------------||--------------------|
|------------------||--------------------|
|-----------------o||-/6-----------------|
|------------------||--------------------|


  A5                 D5                 D5
   E E E E E E E E    E E E E E E E E     E E E E E E E E
   | | | | | | | |    | | | | | | | |     | | | | | | | |
   o / / / / / / /    / o / / / / / /     o / / / / / / /

   W                  W                   W
|------------------|------------------|-------------------|
|------------------|------------------|-------------------|
|------------------|------------------|-------------------|
|------------------|------------------|-------------------|
|-/7---------------|-/9---------------|-/10---------------|
|------------------|------------------|-------------------|


                              D.S. al Coda
  D5        C5        Bb5         A5
    E E E E E E E E     E   E E E E E E E
    | | | | | | | |     |   | | | | | | |
    o / / / o / / /     o   / / / o / / /

    W                  +H         H
|-------------------|-----------------------||
|-------------------|-----------------------||
|-------------------|-----------------------||
|-------------------|-----------------------||
|-/12---------------|-(12)\-----------------||
|-------------------|-----------------------||


 2nd Verse
  &
  G5                                  C5                G5
 4/4
  E E E E E E E E   E E E E E E E E   E E E E E E E E   E E E E E E E E
  | | | | | | | |   | | | | | | | |   | | | | | | | |   | | | | | | | |
  / o / / / / / /   / / / / / / / /   o / / / / / / /   / o / / / / / /

  W                 W                 W                 W
|-----------------|-----------------|-----------------|-----------------|
|-----------------|-----------------|-----------------|-----------------|
|-----------------|-----------------|-----------------|-----------------|
|-----------------|-----------------|-----------------|-----------------|
|-----------------|-----------------|-----------------|-----------------|
|-----------------|-----------------|-----------------|-----------------|


  Eb5               Bb5               F5
  E E E E E E E E   E E E E E E E E   E  E E E  E E E E   E  E E E E E E E
  | | | | | | | |   | | | | | | | |   |  | | |  | | | |   |  | | | | | | |
  / o / / / / / /   o / / / / / / /   /  o / /  / / / /   /  / / / / / / /

  Gtr I
                                      ~~     PM
  W                 W                 Q.     Q.     Q     H        H
|-----------------|-----------------|-------------------|-------------------|
|-----------------|-----------------|-------------------|-------------------|
|-----------------|-----------------|-------------------|-------------------|
|-----------------|-----------------|-3------5------3---|-7\----------------|
|-----------------|-----------------|-------------------|-------------------|
|-----------------|-----------------|-------------------|-------------------|


  D5                                  D5
  E E E E E E E E   E E E E E E E E   E E E E E E E E   E E E E E E E E
  | | | | | | | |   | | | | | | | |   | | | | | | | |   | | | | | | | |
  / o / / / / / /   / / / / / / / /   o / / / / / / /   / / / / / / / /

  W                 W                 W                 W
|-----------------|-----------------|-----------------|------------------|
|-----------------|-----------------|-----------------|------------------|
|-----------------|-----------------|-----------------|------------------|
|-----------------|-----------------|-----------------|------------------|
|-----------------|-----------------|-----------------|------------------|
|-----------------|-----------------|-----------------|------------------|


  G5                Eb5               D5
  E E E E E E E E   E E E E E E E E    E  E E E   E E  E E   E E E E E E E E
  | | | | | | | |   | | | | | | | |    |  | | |   | |  | |   | | | | | | | |
  / o / / / / / /   / o / / / / / /    o  / / /   / /  / /   / / / / / / / /

  Gtr I
                                       ~~~                   ~
  W                 W                  Q.     S S Q    Q     W
|-----------------|-----------------|----------------------|-----------------|
|-----------------|-----------------|----------------------|-----------------|
|-----------------|-----------------|----------------------|-----------------|
|-----------------|-----------------|-/8------7h8p7--------|-----------------|
|-----------------|-----------------|-----------------10---|-9---------------|
|-----------------|-----------------|----------------------|-----------------|


  G5                                  C5                G5
  E E E E E E E E   E E E E E E E E   E E E E E E E E   E E E E E E E E
  | | | | | | | |   | | | | | | | |   | | | | | | | |   | | | | | | | |
  / o / / / / / /   / / / / / / / /   o / / / / / / /   / o / / / / / /

  W                 W                 W                 W
|-----------------|-----------------|-----------------|------------------|
|-----------------|-----------------|-----------------|------------------|
|-----------------|-----------------|-----------------|------------------|
|-----------------|-----------------|-----------------|------------------|
|-----------------|-----------------|-----------------|------------------|
|-----------------|-----------------|-----------------|------------------|


  Eb5               Bb5               F5
  E E E E E E E E   E E E E E E E E   E E E E E E E E   E E E E E E E E
  | | | | | | | |   | | | | | | | |   | | | | | | | |   | | | | | | | |
  / o / / / / / /   o / / / / / / /   / o / / / / / /   / / / / / / / /

  W                 W                 W                 W
|-----------------|-----------------|-----------------|------------------|
|-----------------|-----------------|-----------------|------------------|
|-----------------|-----------------|-----------------|------------------|
|-----------------|-----------------|-----------------|------------------|
|-----------------|-----------------|-----------------|------------------|
|-----------------|-----------------|-----------------|------------------|


  D5                                  D5
  E E E E E E E E   E E E E E E E E   E E E E E E E E   E E E E E E E E
  | | | | | | | |   | | | | | | | |   | | | | | | | |   | | | | | | | |
  / o / / / / / /   / / / / / / / /   o / / / / / / /   / / / / / / / /

  W                 W                 W                 W
|-----------------|-----------------|-----------------|------------------|
|-----------------|-----------------|-----------------|------------------|
|-----------------|-----------------|-----------------|------------------|
|-----------------|-----------------|-----------------|------------------|
|-----------------|-----------------|-----------------|------------------|
|-----------------|-----------------|-----------------|------------------|


  G5                  Eb5
  E  E E E  E E E E   E  E E E  E E E   E
  |  | | |  | | | |   |  | | |  | | |   |
  /  o / /  / / / /   /  o / /  / / /   /

  Gtr I
                                    |--3--|
  Q.     Q.     Q     Q.     Q.     E E   E
|-------------------|-----------------------|
|-------------------|-----------------------|
|-------------------|-----------------------|
|-------------------|-----------------------|
|-------------------|-6------8------6-8---6-|
|-3------5------6---|-----------------------|


  D5
  E E E E E E E E     E E E E E E E E
  | | | | | | | |     | | | | | | | |
  o / / / / / / /     / / / / / / / /

  ~~~~~~~~~~~~~~~~~~~~~~
  W                   W
|-----------------|--------------------|
|-----------------|--------------------|
|-----------------|--------------------|
|-----------------|--------------------|
|-5---------------|-/10----------------|
|-----------------|--------------------|


   Chorus
    F5
    E  E E E  E E E E   E  E E E  E E E E
    |  | | |  | | | |   |  | | |  | | | |
    /  o / /  / / / /   /  / / /  / / / /

    Gtr I
    PM-------------------------------------
    Q.     Q.     E E   Q.     Q.     Q
||--------------------|-------------------|
||o-------------------|-------------------|
||--------------------|-------------------|
||--------------------|-------------------|
||o-------------------|---------------3---|
||--1------3------5-5-|-5------6----------|


  Bb5
  E  E E E  E E E E   E  E E E  E E   E E
  |  | | |  | | | |   |  | | |  | |   | |
  o  / / /  / / / /   /  / / /  / /   / /

 --------|
  Q.     Q.     Q     Q.     Q.     a Q
|-------------------|----------------------|
|-------------------|----------------------|
|-------------------|----------------------|
|-------------------|---------------4h5----|
|-5------3----------|-6------5-------------|
|---------------6---|----------------------|


  D5                                    G5
  E E E E E E E E    E  E E E E E E E   E E E E E E E E   E E E E E E E E
  | | | | | | | |    |  | | | | | | |   | | | | | | | |   | | | | | | | |
  / o / / / / / /    /  / / / / / / /   / o / / / / / /   / / / / / / / /

  >
  ~~~~~~~~~~~~~~~~~~~~~~
  W                 +W                  W                 W
|-----------------|-------------------|-----------------|------------------|
|-----------------|-------------------|-----------------|------------------|
|-----------------|-------------------|-----------------|------------------|
|-4---------------|-(4)---------------|-----------------|------------------|
|-----------------|-------------------|-----------------|------------------|
|-----------------|-------------------|-----------------|------------------|


  Eb5                                 G5
  E E E E E E E E   E E E E E E E E   E E E E E E E E   E E E E E E E E
  | | | | | | | |   | | | | | | | |   | | | | | | | |   | | | | | | | |
  / o / / / / / /   / / / / / / / /   / o / / / / / /   / / / / / / / /

  W                 W                 W                 W
|-----------------|-----------------|-----------------|------------------|
|-----------------|-----------------|-----------------|------------------|
|-----------------|-----------------|-----------------|------------------|
|-----------------|-----------------|-----------------|------------------|
|-----------------|-----------------|-----------------|------------------|
|-----------------|-----------------|-----------------|------------------|


  1.
  Eb5               A                 D5
  E E E E E E E E   E E E E E E E E   E E E E E E E E
  | | | | | | | |   | | | | | | | |   | | | | | | | |
  / o / / / / / /   o / / / / / / /   / o / / / / / /

  W                 W                 W
|-----------------|-----------------|-----------------|
|-----------------|-----------------|-----------------|
|-----------------|-----------------|-----------------|
|-----------------|-----------------|-----------------|
|-----------------|-----------------|-----------------|
|-----------------|-----------------|-----------------|


                     2.
  D5                  Eb5
  E E E E E E E E      E E E E E E E E
  | | | | | | | |      | | | | | | | |
  o / / / / / / /      / o / / / / / /

  W                    W
|------------------||--------------------|
|-----------------o||--------------------|
|------------------||--------------------|
|------------------||--------------------|
|-----------------o||-/6-----------------|
|------------------||--------------------|


  A5                 D5                 D5                  D5         C5
   E E E E E E E E    E E E E E E E E     E E E E E E E E   E    E E E E E  E  E
   | | | | | | | |    | | | | | | | |     | | | | | | | |   |    | | | | |  |  |
   o / / / / / / /    / o / / / / / /     o / / / / / / /   o    / / / o /  /  /

   W                  W                   W                 H.             +Q
|------------------|------------------|-------------------|----------------------|
|------------------|------------------|-------------------|----------------------|
|------------------|------------------|-------------------|----------------------|
|------------------|------------------|-------------------|----------------------|
|-/7---------------|-/9---------------|-/10---------------|-3b5============(3)r==|
|------------------|------------------|-------------------|----------------------|


  Bb5                         A5
   E      E      E      E      E      E      E      E
   |      |      |      |      |      |      |      |
   o      /      /      /      o      /      /      /

   \0.5/  \0.5/  \0.5/  \0.5/  \0.5/  \0.5/  \0.5/  \0.5/
  +E     +E     +E     +E     +E     +E     +E     +E
|-----------------------------------------------------------||
|-----------------------------------------------------------||
|-----------------------------------------------------------||
|-----------------------------------------------------------||
|-(3)----(3)----(3)----(3)----(3)----(3)----(3)----(3)------||
|-----------------------------------------------------------||


 Guitar Solo
  G5
  Gtr II
  E    E E E  E  E  E  E    E     E E E  E   E      E      E
  |    | | |  |  |  |  |    |     | | |  |   |      |      |
  /    o / /  /  /  /  /    /     / / /  /   /      /      /

  Gtr I
                                             \0.5/  \0.5/  \0.5/
  H          +Q    +Q      +H           +E  +E     +E     +E
|------------------------|---------------------------------------|
|------------------------|---------------------------------------|
|-5b7========(5)r==(5)---|-(5)b7========(5)-(5)----(5)r===(5)----|
|------------------------|---------------------------------------|
|------------------------|---------------------------------------|
|------------------------|---------------------------------------|


  Eb5                  G5
  E  E E E   E E E E   E    E E E  E   E      E      E
  |  | | |   | | | |   |    | | |  |   |      |      |
  o  / / /   / / / /   /    o / /  /   /      /      /

                                       \0.5/  \0.5/  \0.5/
  ~~             ~
  Q.     S S Q   Q     H          +E  +E     +E     +E
|--------------------|-------------------------------------|
|-4------3h4p3-------|-------------------------------------|
|----------------5---|-5b7========(5)-(5)----(5)r===(5)----|
|--------------------|-------------------------------------|
|--------------------|-------------------------------------|
|--------------------|-------------------------------------|


  Eb5                  Bb5
  E  E E E   E E E E   E    E  E  E  E E   E E
  |  | | |   | | | |   |    |  |  |  | |   | |
  o  / / /   / / / /   o    /  /  /  / /   / /

  ~~             ~                ~~
  Q.     S S Q   Q     Q      +E  Q.     a E E
|--------------------|-------------------------|
|-4------3h4p3-------|-------------------------|
|----------------5---|-5b7====(5)r5------3h5p3-|
|--------------------|-------------------------|
|--------------------|-------------------------|
|--------------------|-------------------------|


  A5        Bb5     A5  G5
  E  E E E  E E   E E   E E E E E E E E
  |  | | |  | |   | |   | | | | | | | |
  o  / / /  o /   / o   / o / / / / / /

  ~~~~~~~~~~            ~
  Q.     Q.     a E E   W
|---------------------|-----------------|
|---------------------|-----------------|
|-2------3------2h3p2-|-----------------|
|---------------------|-5---------------|
|---------------------|-----------------|
|---------------------|-----------------|


    G5
    E E E E E E E E   E   E  E E E   E  E E
    | | | | | | | |   |   |  | | |   |  | |
    / o / / / / / /   /   /  / / /   /  / /

  a E E E E E E E E   E a E  E E E a E  E E
|-------------------|-----------------------|
|-------------------|-----------------------|
|-5S7-7-7-7-7-7-7-7-|-8-8p7----7-8-8p7----7-|
|-------------------|-------10---------10---|
|-------------------|-----------------------|
|-------------------|-----------------------|


  Eb5                  G5
  E  E E E   E E E E   E   E E E  E  E E E
  |  | | |   | | | |   |   | | |  |  | | |
  o  / / /   / / / /   /   o / /  /  / / /

  ~~             ~
  Q.     S S Q   Q     H         +H
|--------------------|-----------------------|
|--------------------|-----------------------|
|-8------7h8p7---5---|-5b7-------(5)---------|
|--------------------|-----------------------|
|--------------------|-----------------------|
|--------------------|-----------------------|


  Eb5                        Bb5
  E  E E E     E E  E   E    E    E  E  E  E E   E E
  |  | | |     | |  |   |    |    |  |  |  | |   | |
  o  / / /     / /  /   /    o    /  /  /  / /   / /

  ~~                                    ~~
  Q.     Q.        +E  +E    Q      +E  Q.     a E E
|--------------------------|-------------------------|
|--------------------------|-------------------------|
|-8------8b10======(8)r(8)-|-5b7====(5)r5------3h5p3-|
|--------------------------|-------------------------|
|--------------------------|-------------------------|
|--------------------------|-------------------------|


  A5        Bb5     A5  G5
  E  E E E  E E   E E   E E E E E E E E
  |  | | |  | |   | |   | | | | | | | |
  o  / / /  o /   / o   o / / / / / / /

  ~~~~~~~~~~            ~
  Q.     Q.     a E E   W
|---------------------|------------------|
|---------------------|------------------|
|-2------3------2h3p2-|------------------|
|---------------------|-5----------------|
|---------------------|------------------|
|---------------------|------------------|


  F5                                  Bb5
  E E E E E E E E   E E E E E E E E   E E E E E E E E    E E E E E E E E
  | | | | | | | |   | | | | | | | |   | | | | | | | |    | | | | | | | |
  / o / / / / / /   / / / / / / / /   o / / / / / / /    / / / / / / / /

  PM------------------------------|                      ~~
  E E E E E E E E   E E E E E E E E   E E E E E E E E    W
|-----------------|-----------------|-----------------|-------------------|
|-----------------|-----------------|-8p6-----6-------|-------------------|
|---------------5-|-----5-7---5-7-8-|-----8p7---8p7-5-|-/7----------------|
|-7-5-7-8-5-7-8---|-7-8-----8-------|-----------------|-------------------|
|-----------------|-----------------|-----------------|-------------------|
|-----------------|-----------------|-----------------|-------------------|


  D5
  E E  E E E  E E E    E E E  E E E  E E
  | |  | | |  | | |    | | |  | | |  | |
  / o  / / /  / / /    / / /  / / /  / /

  E E  E E E  E E E    E E E  E E E  E E
|---------------6---|----6-8----6-8h10p8-|
|-7-8-10-7-8-10---8-|-10-----10----------|
|-------------------|--------------------|
|-------------------|--------------------|
|-------------------|--------------------|
|-------------------|--------------------|


  G5
  E  E E E  E E E E    E E E E E E E E
  |  | | |  | | | |    | | | | | | | |
  /  o / /  / / / /    / / / / / / / /

                       ~~
  E  E E E  E E E E    W
|-6----8-6----------|-------------------|
|---10-----10-8-6---|-------------------|
|-----------------8-|-/7----------------|
|-------------------|-------------------|
|-------------------|-------------------|
|-------------------|-------------------|


  C5                                       G5
   E E E  E E E  E E   E  E E E  E E E E   E E E E E E E E   E E E E E E E E
   | | |  | | |  | |   |  | | |  | | | |   | | | | | | | |   | | | | | | | |
   / o /  / / /  / /   /  / / /  / / / /   o / / / / / / /   / / / / / / / /

                                     ~                                   ~
   E E E  E E E  E E   E  E E E  E E Q     E E E E E E E E   E E E E E E Q
|-11p8---13p8---11p8-|---13p8---11p8-----|-6p3---5p3---6p3-|---5p3---6p3------|
|------8------8------|-8------8------8---|-----3-----3-----|-3-----3-----3----|
|--------------------|-------------------|-----------------|------------------|
|--------------------|-------------------|-----------------|------------------|
|--------------------|-------------------|-----------------|------------------|
|--------------------|-------------------|-----------------|------------------|


  A5
   E  E  E     E     E  E  E     E       E  E  E     E     E  E  E     E
   |  |  |     |     |  |  |     |       |  |  |     |     |  |  |     |
   /  o  /     /     /  /  /     /       /  /  /     /     /  /  /     /

   E  E  S  S  S  S  E  E  S  S  S  S    E  E  S  S  S  S  E  E  S  S  S  S
|----------------12h15p12-------12h15S|=18p15----------15h18p15----------15-|
|-14----------14-------------14-------|-------17----17----------17----17----|
|----15-12-15-------------15----------|----------18----------------18-------|
|-------------------------------------|-------------------------------------|
|-------------------------------------|-------------------------------------|
|-------------------------------------|-------------------------------------|


  D5
   E    E E E E E  E  E    E E E E E E E E
   |    | | | | |  |  |    | | | | | | | |
   /    o / / / /  /  /    / / / / / / / /

                           ~~
   H.              E  E    W
|-----------------------|------------------|
|-19b20r==========19-17-|-19---------------|
|-----------------------|------------------|
|-----------------------|------------------|
|-----------------------|------------------|
|-----------------------|------------------|


  F5
  E   E   E   E   E   E   E   E     E   E   E   E   E   E   E   E
  |   |   |   |   |   |   |   |     |   |   |   |   |   |   |   |
  /   o   /   /   /   /   /   /     /   /   /   /   /   /   /   /

  |--3--| |--3--| |--3--| |--3--|   |--3--| |--3--| |--3--| |--3--|
  E E   E E E   E E E   E E E   E   E E   E E E   E E E   E E E   E
|-8p6p==5-8p6p==5-8p6p==5-8p6p==5-|-8p6p==5-8p6p==5-8p6p==5-8p6p==5-|
|---------------------------------|---------------------------------|
|---------------------------------|---------------------------------|
|---------------------------------|---------------------------------|
|---------------------------------|---------------------------------|
|---------------------------------|---------------------------------|


  Bb5
   E   E    E   E    E   E    E   E      E   E    E   E    E   E    E   E
   |   |    |   |    |   |    |   |      |   |    |   |    |   |    |   |
   /   o    /   /    /   /    /   /      /   /    /   /    /   /    /   /

   |--3--|  |--3--|  |--3--|  |--3--|    |--3--|  |--3--|  |--3--|  |--3--|
   E E   E  E E   E  E E   E  E E   E    E E   E  E E   E  E E   E  E E   E
|-10p8p==6-10p8p==6-10p8p==6-10p8p==6-|-10p8p==6-10p8p==6-10p8p==6-10p8p==6-|
|-------------------------------------|-------------------------------------|
|-------------------------------------|-------------------------------------|
|-------------------------------------|-------------------------------------|
|-------------------------------------|-------------------------------------|
|-------------------------------------|-------------------------------------|


  D5
  E   E   E   E   E   E   E   E     E   E   E   E   E   E   E   E
  |   |   |   |   |   |   |   |     |   |   |   |   |   |   |   |
  /   o   /   /   /   /   /   /     /   /   /   /   /   /   /   /

  |--3--| |--3--| |--3--| |--3--|   |--3--| |--3--| |--3--| |--3--|
  E E   E E E   E E E   E E E   E   E E   E E E   E E E   E E E   E
|-5p3p==2-5p3p==2-5p3p==2-5p3p==2-|-5p3p==2-5p3p==2-5p3p==2-5p3p==2-|
|---------------------------------|---------------------------------|
|---------------------------------|---------------------------------|
|---------------------------------|---------------------------------|
|---------------------------------|---------------------------------|
|---------------------------------|---------------------------------|


  G5
  E   E   E   E   E   E   E   E      E E  E  E E E E E
  |   |   |   |   |   |   |   |      | |  |  | | | | |
  /   o   /   /   /   /   /   /      / /  /  / / / / /

                                          ~~~
  |--3--| |--3--| |--3--| |--3--|
  E E   E E E   E E E   E E E   E    Q    H.
|-6p5p==3---------6p5p==3---------|-12s==15------------|
|---------6p4p==3---------6p4p==3-|--------------------|
|---------------------------------|--------------------|
|---------------------------------|--------------------|
|---------------------------------|--------------------|
|---------------------------------|--------------------|


  Eb5
   E    E E E E E   E   E    E    E E E E E E E
   |    | | | | |   |   |    |    | | | | | | |
   o    / / / / /   /   /    /    / / / / / / /

                             ~~~~~
   H.              +E   E    W
|-17b18r==========(17)-15-|---------------------|
|-------------------------|-19b20---------------|
|-------------------------|---------------------|
|-------------------------|---------------------|
|-------------------------|---------------------|
|-------------------------|---------------------|


  G5
   E    E E E E E   E   E    E    E E E E E E E
   |    | | | | |   |   |    |    | | | | | | |
   /    o / / / /   /   /    /    / / / / / / /

                             ~~~~~
   H.              +E   E    W
|-17b18r==========(17)-15-|----------------------|
|-------------------------|-19b20----------------|
|-------------------------|----------------------|
|-------------------------|----------------------|
|-------------------------|----------------------|
|-------------------------|----------------------|


  Eb5                      A5
   E    E E  E  E E  E E    E  E E  E  E E  E E
   |    | |  |  | |  | |    |  | |  |  | |  | |
   /    o /  /  / /  / /    o  / /  /  / /  / /

   Q.        Q.      Q      Q.      Q.      Q
|-17b18r====17------15---|-12------15------17---|
|------------------------|----------------------|
|------------------------|----------------------|
|------------------------|----------------------|
|------------------------|----------------------|
|------------------------|----------------------|


  D5
   E     E E  E  E E  E E     E E E E   E       E       E       E
   |     | |  |  | |  | |     | | | |   |       |       |       |
   /     o /  /  / /  / /     / / / /   /       /       /       /

                                        \0.5/   \0.5/   \0.5/   \0.5/
                              ~~~
   S  S  Q    Q.      Q       H        +E      +E      +E      +E
|-15h17p15---14-----------|-------------------------------------------|
|--------------------16---|-/15-------(15)----(15)----(15)----(15)----|
|-------------------------|-------------------------------------------|
|-------------------------|-------------------------------------------|
|-------------------------|-------------------------------------------|
|-------------------------|-------------------------------------------|


  C5                        F5           Bb5                     Eb5
    W                         W           W                       W
    |                         |           |                       |
    /                         /           /                       /

  Gtr I
                              ~~~                                 ~~
    Q.    Q.    E     +E      W           Q      +E   Q.    Q     W
|-------------------------|------------|-----------------------|-------|
|-/13----15----15b16-(15)-|-/13--------|-15b16--(15)-15----13--|-11----|
|-------------------------|------------|-----------------------|-------|
|-------------------------|------------|-----------------------|-------|
|-------------------------|------------|-----------------------|-------|
|-------------------------|------------|-----------------------|-------|


  G5                      A5           D5                      G5
   W                        W           W                        W
   |                        |           |                        |
   /                        /           /                        /

                            ~~~                                  ~~~
   Q      +E   Q.    Q      W           Q      +E   Q.    Q      W
|-----------------------|------------|-----------------------|--------|
|-13b15--(13)-13----11--|-/10--------|-11b13--(11)-11----10--|-/11----|
|-----------------------|------------|-----------------------|--------|
|-----------------------|------------|-----------------------|--------|
|-----------------------|------------|-----------------------|--------|
|-----------------------|------------|-----------------------|--------|


  C5                 F5                   Bb5                Eb5
    W                 W                     W                 W
    |                 |                     |                 |
    /                 /                     /                 /

                                                              ~~~~~~~~~~~~~
    Q.    Q.    Q     H.           +Q       Q.    Q.    Q     H        +H
|------------------|-15b17.5r=====(15)--|-/13--------------|-13b15----(13)----|
|-/13----15----16--|--------------------|--------16----15--|------------------|
|------------------|--------------------|------------------|------------------|
|------------------|--------------------|------------------|------------------|
|------------------|--------------------|------------------|------------------|
|------------------|--------------------|------------------|------------------|


  C5
    E  E E  E  E E  E E     E  E E  E  E E  E E
    |  | |  |  | |  | |     |  | |  |  | |  | |
    /  o /  /  / /  / /     /  / /  /  / /  / /

    Q.      Q.      Q       Q.      Q.      Q
|-----------------------|-----------------------|
|-/13------15------16---|-/13------15------16---|
|-----------------------|-----------------------|
|-----------------------|-----------------------|
|-----------------------|-----------------------|
|-----------------------|-----------------------|


  A5
   E  E  E  E  E     E  E  E    E     E  E  E  E  E  E  E
   |  |  |  |  |     |  |  |    |     |  |  |  |  |  |  |
   /  o  /  /  /     /  /  /    /     /  /  /  /  /  /  /

   E  E  E  E  S  S  E  E  E    S  S  E  E  E  E  E  E  E
|-15p12----12-15s18p15----15-|-18s21-18----18-18p15----15--|
|-------14-------------17----|----------20----------17-----|
|----------------------------|-----------------------------|
|----------------------------|-----------------------------|
|----------------------------|-----------------------------|
|----------------------------|-----------------------------|


  D5                                           D5         C5
   E     E E E   E  E E E    E E E E E E E E   E    E E E E E  E  E
   |     | | |   |  | | |    | | | | | | | |   |    | | | | |  |  |
   /     o / /   /  / / /    o / / / / / / /   o    / / / o /  /  /

                             ~~
   H            +H           W                 H.             +Q
|-------------------------|------------------|----------------------|
|-19b20========(19)r======|=19---------------|----------------------|
|-------------------------|------------------|-5b7============(5)r==|
|-------------------------|------------------|----------------------|
|-------------------------|------------------|----------------------|
|-------------------------|------------------|----------------------|


  Bb5                         A5
   E      E      E      E      E      E      E      E
   |      |      |      |      |      |      |      |
   o      /      /      /      o      /      /      /

   \0.5/  \0.5/  \0.5/  \0.5/  \0.5/  \0.5/  \0.5/  \0.5/
  +E     +E     +E     +E     +E     +E     +E     +E
|----------------------------------------------------------||
|----------------------------------------------------------||
|-(5)----(5)----(5)----(5)----(5)----(5)----(5)----(5)-----||
|----------------------------------------------------------||
|----------------------------------------------------------||
|----------------------------------------------------------||


   3rd Verse
    G5                                  C5                G5
   4/4
    E E E E E E E E   E E E E E E E E   E E E E E E E E   E E E E E E E E
    | | | | | | | |   | | | | | | | |   | | | | | | | |   | | | | | | | |
    / o / / / / / /   / / / / / / / /   o / / / / / / /   / o / / / / / /

    W                 W                 W                 W
||------------------|-----------------|-----------------|------------------|
||o-----------------|-----------------|-----------------|------------------|
||------------------|-----------------|-----------------|------------------|
||------------------|-----------------|-----------------|------------------|
||o-----------------|-----------------|-----------------|------------------|
||------------------|-----------------|-----------------|------------------|


  Eb5               Bb5               F5
  E E E E E E E E   E E E E E E E E   E  E E E  E E E E   E  E E E E E E E
  | | | | | | | |   | | | | | | | |   |  | | |  | | | |   |  | | | | | | |
  / o / / / / / /   o / / / / / / /   /  o / /  / / / /   /  / / / / / / /

                                      ~~     PM
  W                 W                 Q.     Q.     Q     H        H
|-----------------|-----------------|-------------------|-------------------|
|-----------------|-----------------|-------------------|-------------------|
|-----------------|-----------------|-------------------|-------------------|
|-----------------|-----------------|-3------5------3---|-7\----------------|
|-----------------|-----------------|-------------------|-------------------|
|-----------------|-----------------|-------------------|-------------------|


  D5                                  D5
  E E E E E E E E   E E E E E E E E   E E E E E E E E   E E E E E E E E
  | | | | | | | |   | | | | | | | |   | | | | | | | |   | | | | | | | |
  / o / / / / / /   / / / / / / / /   o / / / / / / /   / / / / / / / /

  W                 W                 W                 W
|-----------------|-----------------|-----------------|------------------|
|-----------------|-----------------|-----------------|------------------|
|-----------------|-----------------|-----------------|------------------|
|-----------------|-----------------|-----------------|------------------|
|-----------------|-----------------|-----------------|------------------|
|-----------------|-----------------|-----------------|------------------|


  G5                Eb5               D5
  E E E E E E E E   E E E E E E E E   E E E E E E E E   E E E E E E E E
  | | | | | | | |   | | | | | | | |   | | | | | | | |   | | | | | | | |
  / o / / / / / /   / o / / / / / /   o / / / / / / /   / / / / / / / /

  W                 W                 W                 W
|-----------------|-----------------|-----------------|-------------------||
|-----------------|-----------------|-----------------|------------------o||
|-----------------|-----------------|-----------------|-------------------||
|-----------------|-----------------|-----------------|-------------------||
|-----------------|-----------------|-----------------|------------------o||
|-----------------|-----------------|-----------------|-------------------||


   Chorus
    F5
    E  E E E  E E E E   E  E E E  E E E E
    |  | | |  | | | |   |  | | |  | | | |
    /  o / /  / / / /   /  / / /  / / / /

    Gtr I
    PM-------------------------------------
    Q.     Q.     E E   Q.     Q.     Q
||--------------------|-------------------|
||o-------------------|-------------------|
||--------------------|-------------------|
||--------------------|-------------------|
||o-------------------|---------------3---|
||--1------3------5-5-|-5------6----------|


  Bb
  E  E E E  E E E E   E  E E E  E E   E E
  |  | | |  | | | |   |  | | |  | |   | |
  o  / / /  / / / /   /  / / /  / /   / /

 --------|
  Q.     Q.     Q     Q.     Q.     a Q
|-------------------|----------------------|
|-------------------|----------------------|
|-------------------|----------------------|
|-------------------|---------------4h5----|
|-5------3----------|-6------5-------------|
|---------------6---|----------------------|


  D5                                    G5
  E E E E E E E E    E  E E E E E E E   E E E E E E E E   E E E E E E E E
  | | | | | | | |    |  | | | | | | |   | | | | | | | |   | | | | | | | |
  / o / / / / / /    /  / / / / / / /   / o / / / / / /   / / / / / / / /

  >
  ~~~~~~~~~~~~~~~~~~~~~~
  W                 +W                  W                 W
|-----------------|-------------------|-----------------|------------------|
|-----------------|-------------------|-----------------|------------------|
|-----------------|-------------------|-----------------|------------------|
|-4---------------|-(4)---------------|-----------------|------------------|
|-----------------|-------------------|-----------------|------------------|
|-----------------|-------------------|-----------------|------------------|


  Eb5                                 G5
  E E E E E E E E   E E E E E E E E   E E E E E E E E   E E E E E E E E
  | | | | | | | |   | | | | | | | |   | | | | | | | |   | | | | | | | |
  / o / / / / / /   / / / / / / / /   / o / / / / / /   / / / / / / / /

  W                 W                 W                 W
|-----------------|-----------------|-----------------|------------------|
|-----------------|-----------------|-----------------|------------------|
|-----------------|-----------------|-----------------|------------------|
|-----------------|-----------------|-----------------|------------------|
|-----------------|-----------------|-----------------|------------------|
|-----------------|-----------------|-----------------|------------------|


  1.
  Eb                A5                D5
  E E E E E E E E   E E E E E E E E   E E E E E E E E
  | | | | | | | |   | | | | | | | |   | | | | | | | |
  / o / / / / / /   o / / / / / / /   / o / / / / / /

  W                 W                 W
|-----------------|-----------------|-----------------|
|-----------------|-----------------|-----------------|
|-----------------|-----------------|-----------------|
|-----------------|-----------------|-----------------|
|-----------------|-----------------|-----------------|
|-----------------|-----------------|-----------------|


                     2.
                      Eb
  E E E E E E E E      E E E E E E E E
  | | | | | | | |      | | | | | | | |
  / / / / / / / /      / o / / / / / /

                      Gtr I
  W                    W
|------------------||--------------------|
|-----------------o||--------------------|
|------------------||--------------------|
|------------------||--------------------|
|-----------------o||-/6-----------------|
|------------------||--------------------|


  A5                 D5                 D5
   E E E E E E E E    E E E E E E E E     E E E E E E E E
   | | | | | | | |    | | | | | | | |     | | | | | | | |
   o / / / / / / /    / o / / / / / /     o / / / / / / /

   W                  W                   W
|------------------|------------------|-------------------|
|------------------|------------------|-------------------|
|------------------|------------------|-------------------|
|------------------|------------------|-------------------|
|-/7---------------|-/9---------------|-/10---------------|
|------------------|------------------|-------------------|


  D5        C5        Bb5         A5
    E E E E E E E E     E   E E E E E E E
    | | | | | | | |     |   | | | | | | |
    o / / / o / / /     o   / / / o / / /

    W                  +H         H
|-------------------|-----------------------||
|-------------------|-----------------------||
|-------------------|-----------------------||
|-------------------|-----------------------||
|-/12---------------|-(12)\-----------------||
|-------------------|-----------------------||


   Interlude
    G5
   4/4
     W                        +W
     |                         |
     /                         /

    Gtr I
                                                 PM|
     E  E  E  E  E  E  E  E    E  E  E  E  E  E  E  E
||--------------------------|-------------------------|
||o-------------------------|-------------------------|
||--15p12----17p12----15p12-|----14p12----15p12-------|
||--------12-------12-------|-12-------12-------12-12-|
||o-------------------------|-------------------------|
||--------------------------|-------------------------|


  G5
   W                        +W
   |                         |
   /                         /

                                               PM|
   E  E  E  E  E  E  E  E    E  E  E  E  E  E  E  E
|-------------------------|--------------------------|
|-------------------------|--------------------------|
|-15p12----17p12----15p12-|----14p12----15p12--------|
|-------12-------12-------|-12-------12-------12-12--|
|-------------------------|--------------------------|
|-------------------------|--------------------------|


  Eb5
   W                   +W
   |                    |
   /                    /

                                      PM|
   E E E  E E E  E E    E  E E E  E E E E
|--------------------|--------------------|
|--------------------|--------------------|
|-12p8---10p8---12p8-|----10p8---12p8-----|
|------8------8------|--8------8------8-8-|
|--------------------|--------------------|
|--------------------|--------------------|


  Eb5
   W                   +W
   |                    |
   /                    /

                                      PM|
   E E E  E E E  E E    E  E E E  E E E E
|--------------------|---------------------|
|--------------------|---------------------|
|-12p8---10p8---12p8-|----10p8---12p8------|
|------8------8------|--8------8------8-8--|
|--------------------|---------------------|
|--------------------|---------------------|


  C5                                C5
  W                 +W              W                 +W
  |                  |              |                  |
  /                  /              /                  /

                             ~                                 ~
  E E E E E E E E    E E E E H      E E E E E E E E    E E E E H
|-----------------|---------------|-----------------|---------------|
|-----------------|---------------|-----------------|---------------|
|-8p5---7p5---8p5-|----7-5---8----|-8p5---7p5---8p5-|----7p5---8----|
|-----5-----5-----|--5-----5------|-----5-----5-----|--5-----5------|
|-----------------|---------------|-----------------|---------------|
|-----------------|---------------|-----------------|---------------|


  1.
  D5
   W                  +W
   |                   |
   /                   /

   E E E E E E  E E    E E E E  E E Q
|-------------------|------------------|
|-------------------|------------------|
|-11p7---9p7---11p7-|----9p7---11p7----|
|------7-----7------|--7-----7------7--|
|-------------------|------------------|
|-------------------|------------------|


  D5
   W                   +W
   |                    |
   /                    /

                                  ~~
   E E E  E E E  E E    E  E E E  H
|--------------------|------------------||
|-10p7---11p7---10p7-|----11p7---10----o||
|------7------7------|--7------7--------||
|--------------------|------------------||
|--------------------|-----------------o||
|--------------------|------------------||


  2.
  D5
  Gtr II
    ~~~~~~~~~~~~~~~~                 ~~~~~~~~~~~~~~~~
    W           +Q    Q.    Q.       W           +Q    Q.    Q.
|------------|-------------------|------------|--------------------|
|-/10--------|-(10)--12----10----|-/13--------|-(13)--15----13-----|
|------------|-------------------|------------|--------------------|
|------------|-------------------|------------|--------------------|
|------------|-------------------|------------|--------------------|
|------------|-------------------|------------|--------------------|
|
| Gtr I
|   ~~~~~~~~~~~~~~~~                 ~~~~~~~~~~~~~~~~
|   W           +Q    Q.    Q.       W           +Q    Q.    Q.
|------------|-------------------|------------|--------------------|
|--/7--------|--(7)---8-----7----|-/10--------|-(10)--11----10-----|
|------------|-------------------|------------|--------------------|
|--/4--------|--(4)---5-----4----|--/7--------|--(7)---8-----7-----|
|------------|-------------------|------------|--------------------|
|------------|-------------------|------------|--------------------|


  D5
                \0.5/   \0.5/   \0.5/
    H     +E   +E      +E      +E
|-/11----(11)-(11)----(11)----(11)----|
|-------------------------------------|
|-------------------------------------|
|-------------------------------------|
|-------------------------------------|
|-------------------------------------|
|
|               \0.5/   \0.5/   \0.5/
|   H     +E   +E      +E      +E
|-------------------------------------|
|-/13----(13)-(13)----(13)----(13)----|
|-------------------------------------|
|-------------------------------------|
|-------------------------------------|
|-------------------------------------|


                                                            D5      C5        Bb5     A5
    \0.5/   \0.5/   \0.5/   \0.5/   \1/   \1/   \1/   \1/
                                                            PM------------------------------|
   +E      +E      +E      +E      +E    +E    +E    +E     E E E E E E E E   E E E E E E E E
|-(11)----(11)----(11)----(11)----(11)--(11)--(11)--(11)--|-----------------|------------------||
|---------------------------------------------------------|-----------------|------------------||
|---------------------------------------------------------|-----------------|------------------||
|---------------------------------------------------------|-7-------5-------|------------------||
|---------------------------------------------------------|-5-5-5-5-3-3-3-3-|-8-------7--------||
|---------------------------------------------------------|-----------------|-6-6-6-6-5-5-5-5--||
|
|   \0.5/   \0.5/   \0.5/   \0.5/   \1/   \1/   \1/   \1/
|                                                           PM------------------------------|
|  +E      +E      +E      +E      +E    +E    +E    +E     E E E E E E E E   E E E E E E E E
|---------------------------------------------------------|-----------------|------------------||
|-(13)----(13)----(13)----(13)----(13)--(13)--(13)--(13)--|-----------------|------------------||
|---------------------------------------------------------|-----------------|------------------||
|---------------------------------------------------------|-----------------|------------------||
|---------------------------------------------------------|-5-5-5-5-3-3-3-3-|------------------||
|---------------------------------------------------------|-----------------|-6-6-6-6-5-5-5-5--||


 Outro
  Q.=140
  G5
 4/4
  Gtr II
  W                +W
  |                 |
  /                 /

  Gtr I
  H       +H       +H     +Q     Q
|----------------|----------------------|
|----------------|-------------[13]b15--|
|-5b7=====(5)----|-(5)r===(5)-----------|
|----------------|----------------------|
|----------------|----------------------|
|----------------|----------------------|


  G5
    W                 +W
    |                  |
    /                  /

                       |-3-| |-3-| |-3-| |-3-|
   +Q    +Q.   Q  E    E E E E E E E E E E E E
|-------------------|--------------------------|
|-(13)--(13)--------|--3-------3-------3-----3-|
|--------------3--5-|----5-3-5---5-3-5---5-3---|
|-------------------|--------------------------|
|-------------------|--------------------------|
|-------------------|--------------------------|


  Eb
 4/4
  W                       +W
  |                        |
  /                        /

  Q    +Q     +E  E E E    E H    E E E
|-----------------------|---------------|
|-----------------------|---------------|
|-5b7r=(5)b7r=(5)-3-5-3-|--2------------|
|-----------------------|----5----5-7-8-|
|-----------------------|---------------|
|-----------------------|---------------|


  Eb
  W                     +W
  |                      |
  /                      /

          |-3-| |-3-|    |-3-| |-3-| |-3-|
  E E E E E E E E E E    E E E E E E E E E E E
|---------------------|--------------------------|
|---------------------|--------------------------|
|-5-------5-----5-----|--------5-------5---------|
|---8-7-5---8-7---8-7-|--5-7-5---8-7-8---8-5-5---|
|---------------------|--------------------------|
|---------------------|--------------------------|


  G5
 4/4
  W                    +W
  |                     |
  /                     /

  E +E    +E  E H      +H.        Q
|--------------------|----------/15--|
|--------------------|---------------|
|--------------------|---------------|
|--------------------|---------------|
|-5-(5)b7r(5)-3-5----|-(5)-----------|
|--------------------|---------------|


      H.=H
  G5
   W              +W
   |               |
   /               /

                          |--3--|  |--3--|  |--3--|
   Q   H.         +E   E  E  E  E  E  E  E  E  E  E
|-17--18-------|-(18)-17-15-17-18-17-15-17-18-17-15--|
|--------------|-------------------------------------|
|--------------|-------------------------------------|
|--------------|-------------------------------------|
|--------------|-------------------------------------|
|--------------|-------------------------------------|


  G5
 4/4
  Gtr II
                                                            ~~~
   Q        E      +E   +E    Q   E    +E   E  +E   E  +E   Q.
|----------13b15==(13)-(13)r-13--11-|-(11)-10-(10)--8--(8)--6----|
|-----------------------------------|----------------------------|
|-----------------------------------|----------------------------|
|-----------------------------------|----------------------------|
|-----------------------------------|----------------------------|
|-----------------------------------|----------------------------|
|
| Gtr I
|                                                           ~~~
|  |--3--|
|  E  E  E  E      +E   +E    Q   E    +E   E  +E   E  +E   Q.
|-17-18-17-17b18==(17)-(17)r-17--15-|-(15)-13-(13)-11-(11)-10----|
|-----------------------------------|----------------------------|
|-----------------------------------|----------------------------|
|-----------------------------------|----------------------------|
|-----------------------------------|----------------------------|
|-----------------------------------|----------------------------|


                                                           Q.=120
  G5
    \0.5/   \0.5/   \0.5/   \0.5/   \0.5/   \0.5/   \1/
   +E      +E      +E      +E      +E      +E      +Q       +Q    Q  H
|--(6)-----(6)-----(6)-----(6)-----(6)-----(6)-----(6)---|--(6)\----------*|
|--------------------------------------------------------|----------------*|
|--------------------------------------------------------|----------------*|
|--------------------------------------------------------|----------------*|
|--------------------------------------------------------|----------------*|
|--------------------------------------------------------|----------------*|
|
|   \0.5/   \0.5/   \0.5/   \0.5/   \0.5/   \0.5/   \1/
|  +E      +E      +E      +E      +E      +E      +Q       +Q    Q  H
|-(10)----(10)----(10)----(10)----(10)----(10)----(10)---|-(10)\----------*|
|--------------------------------------------------------|----------------*|
|--------------------------------------------------------|----------------*|
|--------------------------------------------------------|----------------*|
|--------------------------------------------------------|----------------*|
|--------------------------------------------------------|----------------*|



Duration Legend
---------------
W - whole; H - half; Q - quarter; E - 8th; S - 16th; T - 32nd; X - 64th; a - acciaccatura
+ - note tied to previous; . - note dotted; .. - note double dotted
Uncapitalized letters represent notes that are staccato (1/2 duration)
Irregular groupings are notated above the duration line
Duration letters will always appear directly above the note/fret number it represents the
duration for.  Duration letters with no fret number below them represent rests.  Multi-
bar rests are notated in the form Wxn, where n is the number of bars to rest for.  Low
melody durations appear below the staff

Tablature Legend
----------------
 h   - hammer-on
 p   - pull-off
 b   - bend
 pb  - pre-bend
 r   - bend release (if no number after the r, then release immediately)
 /\  - slide into or out of (from/to "nowhere")
 s   - legato slide
 S   - shift slide
 - natural harmonic
[n]  - artificial harmonic
n(n) - tapped harmonic
 ~   - vibrato
 tr  - trill
 T   - tap
 TP  - trem. picking
 PM  - palm muting
\n/  - tremolo bar dip; n = amount to dip
 \n  - tremolo bar down
 n/  - tremolo bar up
/n\  - tremolo bar inverted dip
 =   - hold bend; also acts as connecting device for hammers/pulls
 <> - volume swell (louder/softer)
 x   - on rhythm slash represents muted slash
 o   - on rhythm slash represents single note slash

Misc Legend
-----------
 |  - bar
||  - double bar
||o - repeat start
o|| - repeat end
*|  - double bar (ending)
 :  - bar (freetime)
 $  - Segno
 &  - Coda
Tempo markers -  = BPM(8/16=s8/s16), where s8 = swing 8ths, s16 = swing 16ths

comments
We did not receive enough feedback on this tab! Please rate:
print report bad tab
1 2 3 4 5
I want to post or [tab]
guest
You may want to rate the tab now too:
select rating
Please do not post tabs as comments. Select "correction" instead!