Oops, an error
Loading. Please wait.

Haz Tu Jugada Tab

ver1
ver1

Whole song

Interactive

More versions @911Tabs.com
1,491 views 3 this week
no commentswrite comment
1 2 3 4 5
please rate
Autoscroll
+/-
esc
set tempo
stop
Contributor
Hey! There's an official Ultimate Guitar app which is ideal
for learning songs when you're away from computer. Get the app
WARNING: You are trying to view
                                    content from Ultimate-Guitar.com
                                    in an unauthorized application,
                                    which is prohibited.

                                    Please use an official Ultimate
                                    Guitar Tabs application for iPhone,
                                    iPad or Android to access legitimate
                                    chords, guitar, bass, and drum tabs
                                    from Ultimate-Guitar.com database.

                                    Type "ultimate guitar tabs" in Apple
                                    App Store's or Android Market's
                                    search to find the application.
#----------------------------------PLEASE NOTE---------------------------------#
#This file is the author's own work and represents their interpretation of the #
#song. You may only use this file for private study, scholarship, or research. #
#------------------------------------------------------------------------------#

HAZ TU JUGADA
As recorded by Rata Blanca
(From the 1990 Album MAGOS, ESPADAS Y ROSAS)

Transcribed by Leandro Perazza (Leahorsie@yahoo.com.ar )
	

Words and Music by Walter Giardino

C#5
x 4 6 6 x x
	
E5
0 2 2 x x x
	
F#5
2 4 4 x x x
	
A5
x 0 2 2 x x

C5
x 3 5 5 x x
	
F#5IX
x 9 11 11 x x
	
E5VII
x 7 9 9 x x
	
D#5
x 6 8 8 x x

D5
x x 0 2 3 x

Gtr I (E A D G B E) - 'Gtr 1'
Gtr II (E A D G B E) - 'Gtr 2'
Gtr III (E A D G B E) - 'Gtr 3'
Gtr IV (E A D G B E) - 'Gtr 4'

 Intro
  Moderately Fast Rock Q=140
             $$
                 N.C.(F#m)
 4/4
  Gtrs I, II
                 PM        PM
  H    H         E E S E S E S S +E  E
|------------||------------------------|
|------------||o-----------------------|
|------------||------------------------|
|------x\----||----4---2---------------|
|------x\----||o-----------5---4-(4)-2-|
|------------||--2---------------------|


  (D)                       (E5)
  PM----|   PM              PM|   PM  PM
  E E S E S E S S +E  E     E E S E S E S S +E  E
|------------------------||------------------------|
|-----------------------o||------------------------|
|------------------------||------------------------|
|------------------------||------------------------|
|---5---4---2-----------o||---2---4---5---4-(4)-2--|
|-2-------------5-(5)-4--||-0----------------------|


  (C)                     (C#)                    D5 C#5B5 A5 G#5
  PM|   PM  PM            PM|   PM  PM  PM  PM
  E E S E S E S S +E  E   E E S E S E S E S E   S E. E. E. E. E.
|-----------------------|---------------------|------------------|
|-----------------------|---------------------|------------------|
|-----------------------|---6---4---7---4---6-|------------------|
|---4---6---7---6-(6)-4-|---------------------|---7--6--4--------|
|-3---------------------|-4-------------------|---5--4--2--7--6--|
|-----------------------|---------------------|------------5--4--|


    N.C.(F#m)               (D)
    PM        PM            PM----|   PM
    E E S E S E S S +E  E   E E S E S E S S +E  E
||------------------------|------------------------||
||o-----------------------|-----------------------o||
||------------------------|------------------------||
||----4---2---------------|------------------------||
||o-----------5---4-(4)-2-|---5---4---2-----------o||
||--2---------------------|-2-------------5-(5)-4--||


     Verse
  $
      (F#5)
      Gtr I
      PM----------------------|
      E S S S S S S E S S S S S S
|-||------------------------------|
|-||o-----------------------------|
|-||------------------------------|
|-||------------------------------|
|-||o-----------------------------|
|-||--2-2-2-2-2-2-2-2-2-2-2-2-2-2-|


  (F#5)
  PM  PM----------------|
  E E S S S S E S S S S S S
|---------------------------|
|---------------------------|
|---------------------------|
|---4---------4-------------|
|---------------------------|
|-2---2-2-2-2---2-2-2-2-2-2-|


                                       (A5)
  PM----------------------|            PM  PM----|    PM------|
  S S S S S S S S S S S S S S S  S     E E S S S S E. S E  S  S
|------------------------------------|---------------------------|
|------------------------------------|---------------------------|
|------------------------------------|---------------------------|
|------------------------------------|---7---------7-------------|
|------------------------------------|---------------------------|
|-2-2-2-2-2-2-2-2-2-2-2-2-2-2-2-(x)/-|-5---5-5-5-5----5-5-(5)-5--|


  (E5)
  PM  PM|   PM---------------------------------------------
  E E S S E E S S S S S S   E S S S S S S S S S S S S S S
|-------------------------|-------------------------------|
|-------------------------|-------------------------------|
|-------------------------|-------------------------------|
|-------------------------|-------------------------------|
|-------------------------|-------------------------------|
|-0-0-0-0-0-0-0-0-0-0-0-0-|-0-0-0-0-0-0-0-0-0-0-0-0-0-0-0-|


 -------------------------------|
  S S S S S S S S S S S S S S S S
|----------------------------------|
|----------------------------------|
|----------------------------------|
|----------------------------------|
|----------------------------------|
|-0-0-0-0-0-0-0-0-0-0-0-0-0-0-0-0--|


  1.
                                             To Cod
                                             To Cod
  N.C.(F#m)               (D)
  Gtrs I, II
  PM        PM            PM----|   PM
  E E S E S E S S +E  E   E E S E S E S S +E  E
|-----------------------|------------------------||
|-----------------------|-----------------------o||
|-----------------------|------------------------||
|---4---2---------------|------------------------||
|-----------5---4-(4)-2-|---5---4---2-----------o||
|-2---------------------|-2-------------5-(5)-4--||


  2.
 a
 a
   A5
  Gtr I
                               ~
   H    a a    +H       +H     H
|---------------------|-------------||
|---------3b5==(3)r===|=(3)----2----||
|-------x-------------|-------------||
|--2----x-------------|-------------||
|--0------------------|-------------||
|---------------------|-------------||


 Chorus
  B5         E5          A5         D5           B5   Asus4
  W           W          W            W          H    H
|----------|-----------|----------|------------|-----------|
|----------|-----------|----------|------------|-----------|
|-4--------|-/9--------|----------|------------|------7----|
|-x--------|--x--------|-7--------|-/12--------|-9----7----|
|-2--------|-/7--------|-x--------|---x--------|-x----x----|
|----------|-----------|-5--------|-/10--------|-7----5----|


  G#5  C5     C#5                        B5   F#5
  H    H      W          H.      +Q      H      H
|-----------|----------|---------------|-------------|
|-4---------|----------|---------------|-------------|
|-x----5----|-6--------|-6-------(6)\--|-4----/11----|
|-6----5----|-6--------|---------------|-x------x----|
|-x----3----|-4--------|---------------|-2-----/9----|
|-4---------|----------|---------------|-------------|


  E5   G#5    A5   E5      D5   C#5    B5   C#5    D5   E5
  H    H      H     H      H    H      H    H      H    H
|-----------|------------|-----------|-----------|-----------||
|-----------|------------|-----------|-----------|-----------||
|-9---------|------/9----|-7----6----|-4----6----|-7----9----||
|-x----6----|-7-----x----|-x----x----|-x----x----|-x----x----||
|-7----x----|-x----/7----|-5----4----|-2----4----|-5----7----||
|------4----|-5----------|-----------|-----------|-----------||


   Interlude
    N.C.(F#m)               (D)                       (E5)
    Gtrs I, II
    PM        PM            PM----|   PM              PM|   PM  PM
    E E S E S E S S +E  E   E E S E S E S S +E  E     E E S E S E S S +E  E
||------------------------|------------------------||------------------------|
||o-----------------------|-----------------------o||------------------------|
||------------------------|------------------------||------------------------|
||----4---2---------------|------------------------||------------------------|
||o-----------5---4-(4)-2-|---5---4---2-----------o||---2---4---5---4-(4)-2--|
||--2---------------------|-2-------------5-(5)-4--||-0----------------------|


                                                  D.S. al Coda
  (C)                     (C#)                    D5 C#5B5 A5 G#5
  PM|   PM  PM            PM|   PM  PM  PM  PM
  E E S E S E S S +E  E   E E S E S E S E S E   S E. E. E. E. E.
|-----------------------|---------------------|------------------||
|-----------------------|---------------------|------------------||
|-----------------------|---6---4---7---4---6-|------------------||
|---4---6---7---6-(6)-4-|---------------------|---7--6--4--------||
|-3---------------------|-4-------------------|---5--4--2--7--6--||
|-----------------------|---------------------|------------5--4--||


                                    Chorus
  &
  A5                                 B5         E5          A5         D5
         \0.5________/
                          ~~~
  H    a H          +Q   +H.         W           W          W            W
|-----------------|---------------||----------|-----------|----------|--------|
|-----------------|---------------||----------|-----------|----------|--------|
|-----------------|---------------||-4--------|-/9--------|----------|--------|
|-2---------------|---------------||-x--------|--x--------|-7--------|-/12----|
|-0------0--------|-(0)--(0)------||-2--------|-/7--------|-x--------|---x----|
|------x----------|---------------||----------|-----------|-5--------|-/10----|


                          C#5
                          Gtr I
  W           W           W
                          |
                          /

                          Gtr III
  H    H      H    H      H    Q.    E
|-----------|-----------|------------------|
|-----------|-4---------|-----------16b18==|
|------7----|-x----5----|------------------|
|-9----7----|-6----5----|------------------|
|-x----x----|-x----3----|------------------|
|-7----5----|-4---------|------------------|


   +W                    W
    |
    /

                         Gtr I
                ~~~~~
   +Q    +Q     H        H      H
|--------------17------|-------------|
|-(16)--(16)--(16)r----|-------------|
|----------------------|-4----/11----|
|----------------------|-x------x----|
|----------------------|-2-----/9----|
|----------------------|-------------|


  E5   G#5    A5   E5      D5   C#5    B5   C#5    D5   E5
  H    H      H     H      H    H      H    H      H    H
|-----------|------------|-----------|-----------|-----------||
|-----------|------------|-----------|-----------|-----------||
|-9---------|------/9----|-7----6----|-4----6----|-7----9----||
|-x----6----|-7-----x----|-x----x----|-x----x----|-x----x----||
|-7----x----|-x----/7----|-5----4----|-2----4----|-5----7----||
|------4----|-5----------|-----------|-----------|-----------||


   Interlude
                           1.
    N.C.(F#m)               (D)
    Gtrs I, II
    PM        PM            PM----|   PM
    E E S E S E S S +E  E   E E S E S E S S +E  E
||------------------------|------------------------||
||o-----------------------|-----------------------o||
||------------------------|------------------------||
||----4---2---------------|------------------------||
||o-----------5---4-(4)-2-|---5---4---2-----------o||
||--2---------------------|-2-------------5-(5)-4--||


 2.
  PM|   PM  PM
  Q   Q     Q      E   E
|---------------------10s==||
|--------------------------||
|--------------------------||
|--------------------------||
|---5---4---2--------------||
|-2-------------5-(5)--4---||
  E E S E S E S S +E   E


 Guitar Solo
  (G#5)
  Gtr I
   E     S S   S  S   E   E   S  S S S   E
   |     | |   |  |   |   |   |  | | |   |
   o     / /   /  /   /   /   /  / / /   /

  Gtr III
                              ~~~~
   Q          +E     +E   E  +Q         +E
|-21b24======(21)r==(21)-21-(21)-------(21)\-|
|--------------------------------------------|
|--------------------------------------------|
|--------------------------------------------|
|--------------------------------------------|
|--------------------------------------------|


                                          E5               F#5        A5
   E        S    S     S    S     E        E.              S    +E     E
   |        |    |     |    |     |        |               |     |     |
   /        /    /     /    /     /        /               /     /     /

   |--3--|  |---3---|  |---3---|  |--3--|  |--3---|  |---3----|  |3-|
   S  S  S  S  S    S  S  S    S  S  S  S  S   S  S  S   S    S  S  E  T   T T   T
|-17-16-14----14h==16h17p16p==14-13--------------------/17---16-14-13s(9)h10p9-----|
|----------18-----------------------17p15p14--15h17p14-------------------------/13-|
|----------------------------------------------------------------------------------|
|----------------------------------------------------------------------------------|
|----------------------------------------------------------------------------------|
|----------------------------------------------------------------------------------|


  (G#5)
    E      S    S     S    S        E        E              S  S  S    S     E
    |      |    |     |    |        |        |              |  |  |    |     |
    o      /    /     /    /        /        /              /  /  /    /     /

           |---3---|  |----3----|            |--3--|              |---3---|
   +S   S  S  S    S  S  S      S   S  S  a  S  S  S  a  a  S  S  S  S    S  S  S
|---------------------------------------------------------------------------------|
|-(13)----------------------------------------------------------------------------|
|------14p13-11h==14p13p11---------13-11-------------------11-14-11---------------|
|----------------------------h(14)-------10h13-10-10s11h13----------13p==11s10-11-|
|---------------------------------------------------------------------------------|
|---------------------------------------------------------------------------------|


  (G#5)                     C5           A5      F#5
   E        S  S  S     S E   E.          S  +E    E
   |        |  |  |     | |   |           |   |    |
   o        /  /  /     / /   /           /   /    /

                                                   ~~~~
   S  S  a  S  S  Q          +S   +S   S  S  +E   +E
|-----------------------------------------------------|
|-----------------------------------------------------|
|----11-13h14p11-13b14======(13)r(13)p11-13-(13)-(13)-|
|-13--------------------------------------------------|
|-----------------------------------------------------|
|-----------------------------------------------------|


    W              W
 ~~~~~~~
   +Q    Q  H      Wx3
|----------------|--------|
|----------------|--------|
|-(13)\----------|--------|
|----------------|--------|
|----------------|--------|
|----------------|--------|


  (G#5)
         |--3--|  |--3--|  |--3--|   |-----5-----|  |-----5-----|
   S  S  S  S  S  S  S  S  S  S  S   S  S  S  S  S  S  S  S  S  S
|-17-14-13-14h16h17p14-20-14-17p14-\13-14h16h17p14-20p14-17p14-13-|
|-----------------------------------------------------------------|
|-----------------------------------------------------------------|
|-----------------------------------------------------------------|
|-----------------------------------------------------------------|
|-----------------------------------------------------------------|


  (G#5)                            E5           F#5                  A5
   |--3--|  |--3--|        |--3--|   |--3--|              |--3--|     |--3--|
   S  S  S  S  S  S  S  S  S  S  S   S  S  S  T  T  T  T  T  T  T  S  S  S  S
|-14-16-17-16-14-13-14-13--------------16-17p16p14S13-------------------------|
|-------------------------16-14-13-/16----------------16p14p13h14-13-13-14-13-|
|-----------------------------------------------------------------------------|
|-----------------------------------------------------------------------------|
|-----------------------------------------------------------------------------|
|-----------------------------------------------------------------------------|


  (G#5)
   |--3--|       |---3---| |-3--|  |-3--| |-3--|  |--------3--------|
   S  S  S  S  S S  a  S S S  S S  S S  S S  S S  S  E  a  T  T  S  S
|---------------------------------------------------------------------|
|----------12h14S9-10h12p9-9-10-9---------9---------------------------|
|-14p13h14------------------------11p9------11-9----------11h13h14p11-|
|--------------------------------------11--------11-10-13-------------|
|---------------------------------------------------------------------|
|---------------------------------------------------------------------|


  (G#5)               C5 A5        F#5
    S   E  S  S  S  e  e  e  E      +S   +S
|--------------------------------------------|
|--------------------------------------------|
|------------------11-13-14-13b16==(13)r(13)-|
|-(12)p10-11-13-14---------------------------|
|--------------------------------------------|
|--------------------------------------------|


  (G#5)
   +E      +E      +E      +E   E E Q    Wx3
|--------------------------------------|--------|
|--------------------------------------|--------|
|-(13)b17r(13)b16r(13)b14r(13)\-x------|--------|
|--------------------------------------|--------|
|--------------------------------------|--------|
|--------------------------------------|--------|


  (G#5)                                     E5 FA5
                    ~~                       ~~
    |-----3-----|            |-----3-----|
    Q  +Q      +Q   H        Q  +Q      +Q   H
|------------------------|------------------------|
|-/17-(17)b19r(17)-16----|-/21-(21)b22r(21)-19----|
|------------------------|------------------------|
|------------------------|------------------------|
|------------------------|------------------------|
|------------------------|------------------------|


  (G#5)
    E      +E   +E   +E      +S   +S      +E   +E      +E
|-/21b23==(21)r(21)-(21)b24r(21)-(21)b23r(21)-(21)b24r(21)b23r=|
|--------------------------------------------------------------|
|--------------------------------------------------------------|
|--------------------------------------------------------------|
|--------------------------------------------------------------|
|--------------------------------------------------------------|


  (G#5)                               C5           A5                F#5
    W
   +E   +S      +S   +S   +S      +E   +E   +S      +S   +S   +S      +E
|-(21)-(21)b24r(21)-(21)-(21)b24r(21)-(21)-(21)b23r(21)-(21)-(21)b24r(21)b23-|
|----------------------------------------------------------------------------|
|----------------------------------------------------------------------------|
|----------------------------------------------------------------------------|
|----------------------------------------------------------------------------|
|----------------------------------------------------------------------------|


  (G#5)                          F#5E5VD#5C5
                                 Gtr I
    W               W            Q  Q  Q  Q
                                 |  |  |  |
                                 /  /  /  /

   +Q    Q   H      Wx2          W
|-(21)s=(x)-------|------------|--------------||
|-------(x)-------|------------|--------------||
|-----------------|------------|--------------||
|-----------------|------------|--------------||
|-----------------|------------|--------------||
|-----------------|------------|--------------||


  C#m                                  G#5                  A5
                                                                       ~~
  S  S S S S S S S S S S S  S S S  S   S S  S S +S   S  S S  S S  S S  Q
|------------------------------------|------------------------------------|
|-9-10-9-7-9-7---7-------------------|-9------9-(9)-12-10-9-10p9------10--|
|--------------9---9-8-9-8----8-9-11-|---9-11--------------------11-9-----|
|--------------------------11--------|------------------------------------|
|------------------------------------|------------------------------------|
|------------------------------------|------------------------------------|


  B                                 F#5              G#5
                                                              ~
  S S S S S S S S S S S S S S S S   E a S S S  S S S  S S S S Q
|---------------------------------|---------7--------------------|
|-7-9-7---7-----------------------|-7-----7---10-9-7-10-9-7---9--|
|-------9---9-8-9-8-6-8-6---6-8-9-|-----8-------------------9----|
|-------------------------9-------|---x--------------------------|
|---------------------------------|------------------------------|
|---------------------------------|------------------------------|


  A                                 E5                F#5
                                                              ~
  S S S S S S S S S S S S S S S S   S S S S +S  S S S S S S S Q
|---------------------------------|------------------------------|
|-5-7-5---5-----------------------|-------------9-7---9-7-----7--|
|-------8---8-6-8-6---6-------6-8-|-9-8-6-9-(9)-9---9-----9-8----|
|-------------------9---9-7-9-----|------------------------------|
|---------------------------------|------------------------------|
|---------------------------------|------------------------------|


  C5              C#5                     B5                   E5
                                                                  PM| ~
            |3|
  S S S S S E S S S S S S +S  S T T T T   S S S S +S  a  S S S  E S S Q
|-------------------------------4-------|---------------------------------|
|-4-------4-7-5-4-5-----------5---7p5p4-|-7-----7-(7)-9h10p9p7-/9---7-9---|
|---5-4-5-----------6-5-6-(6)-----------|---8h9-------------------9-------|
|---------------------------------------|---------------------------------|
|---------------------------------------|---------------------------------|
|---------------------------------------|---------------------------------|


  D#5                 G#5
                       |-----3-----|  |--3--|
  S S S S +S  S S S a  E  S  S  S  S  S  S  S  T  T  T  T
|-6-----7-(7)---6---8s17p16p14----14-17-16-14-------------|
|---8-8-------8---8------------16-------------14h17p16p14-|
|---------------------------------------------------------|
|---------------------------------------------------------|
|---------------------------------------------------------|
|---------------------------------------------------------|


                                   |--3--|  |--3--|  |--3--|  |--3--|
   a  S  S  S  S  S  S  S  S   a   S. T  S  S  S  S  S  S  S  S  S  S
|-----------------------------------------------------------------------|
|----16-14-------16-14--------------------------------------------------|
|-14-------16p14-------16p14--13h=14p13p11----------14-13-11------------|
|----------------------------(13)----------13p11p10----------13-11-10---|
|-----------------------------------------------------------------------|
|-----------------------------------------------------------------------|


                                   C#5
                                        ~~~~~~~~~~
                     |--3--|
   S  a  S  S  S  a  S  S  S  S  S  E  +E   +Q
|------------------------------------------------|
|------------------------------------------------|
|----------11-13-13h14-13-11---------------------|
|-10-11h13-------------------14-10-11-(11)-(11)--|
|------------------------------------------------|
|------------------------------------------------|


                  N.C.
                         2/4
 ~~~~~~
   +H      +E   E E  E    Q   S S S S
|-----------------------|-------------||
|-----------------x\----|-x\----------||
|-----------------x\-x\-|-----6p4-----||
|-(11)----(11)\---------|---------7p4-||
|-----------------------|-------------||
|-----------------------|-------------||


  F#m
 4/4
          |-3-|                                       |-3-|
  S S S S S S S S S S S S S S S S S   S S S S  a  S S S S S S S S S S S S S
|-----------------------------------|----------------------------------------|
|-----------------------------------|----------------------------------------|
|-6p4-7p6p4h6p4---4h6p4-6p4-6p4---4h|=6p4---4h(5)h6p4-7p6p4-6p4---4-6p4-6-4--|
|---------------7---------------7---|-----7---------------------7---------x--|
|-----------------------------------|----------------------------------------|
|-----------------------------------|----------------------------------------|


  C#m
  \0.5/    \0.5/                 \1.5
                   ~~~~~~~~
  E     E +Q      +Q   +E  E   a Q     +E   E  E a a  E      +Q
|--------------------------0-|-0----------------------------------|
|--------------------------0-|-0---------------------15b17==(15)--|
|-------6-(6)-----(6)--(6)-6-|-6-------------------x--------------|
|----------------------------|-------------------x----------------|
|-4--------------------------|-------------(0)sx------------------|
|----------------------------|---0-----(0)-(0)sx------------------|


  F#m
         ~~~~~~~~           ~~~~~~~
                                    |--3--|    |---3---|  |--3--|   |--3--|
   +E   +E   +S    a   +T   T  +E   S  S  S    S    S  S  S  T  S.  S  S  S
|---------------------------------------------------------------------------|
|-(15)-(15)-(15)-(15)r(15)-14-(14)----14-15-([17])----14----15p14--12h14----|
|----------------------------------16--------------16----14--------------14-|
|---------------------------------------------------------------------------|
|---------------------------------------------------------------------------|
|---------------------------------------------------------------------------|


   T  S  T  S  S  S  S  S  S a  S  a  e  S  E      +E
|-------14----14-------14------14-14h16-17-16b17==(16)r=|
|----14----14-------14-14-14---14-----------------------|
|-16-------16----16----------x--------------------------|
|-------------------------------------------------------|
|-------------------------------------------------------|
|-------------------------------------------------------|


  C#m
                           ~~~~~~~~~
    |--3---|
   +S   S  S  S  S  +Q    +Q    +S   +S   E
|-(16)-14h16p14------------------------------|
|---------------17-(17)--(17)--(17)-(17)\----|
|-----------------------------------------x/-|
|-----------------------------------------x/-|
|--------------------------------------------|
|--------------------------------------------|


                |----3----|   |--3---|           |-----3-----|
   E  a S  a S  S E  S S  S  +S   S  S a  S S a  S a  E S  S S
|-/9-----------------------------------------------------------|
|----10p9-10p9-10p9-10-9---------------9h10p9------9h10-9h10p9-|
|------------------------11-(11)-10h11----------11-------------|
|---------------------------------------------x----------------|
|--------------------------------------------------------------|
|--------------------------------------------------------------|


  F#m
           |-3--|                             |-3-|
   S a  S  S  S S  S  S a  S S  S S S S  S S  S S S
|---------------------------------------------------|
|----9h10-12p10p9h10----9h10p9-10---9---10-9h10p9-7h|
|-11-----------------11-----------------------------|
|---------------------------------------------------|
|---------------------------------------------------|
|---------------------------------------------------|


  |-3-|  |-3-| |-3--|
  S S S  S S S S S  S T T  S      +Q   +E   S   S
|-------------------------------------------------|
|-9p7---------------------[9]b10==(9)r=(9)-(9)\---|
|-----9h11p9-8h9p8------x-------------------------|
|------------------11-x---------------------------|
|-------------------------------------------0-----|
|-------------------------------------------0---0-|


  C#m
  \1.5
  Q     +Q    Q   S  S      +E
|-------------------------------|
|-------------------------------|
|-----------------4s14b16==(14)-|
|------------(x)----------------|
|------------(x)----------------|
|-0-----(0)--(x)----------------|


    ~~~~~~~~~                                         PM
              |-3-|        |--3--|
   +E    a   +E   S  S  S  S  S  S  S  S  S  S  +E  S S
|-------------------------------------------------------|
|-------------------------------------------------------|
|-(14)-(14)r(14)h16p14-13h14p13h14S11h12p11-12-(12)sx---|
|-------------------------------------------------------|
|-----------------------------------------------------7-|
|-------------------------------------------------------|


  F#m
                   |-3--| |-3--| |-3-|
  E  S S  S S  S S S  S S S  S S S a E  S S
|-----------------------------------------7-|
|--------^7-9h10p9-7----7-9h10p9p7-7h9-10---|
|--------^7----------10---------------------|
|------7------------------------------------|
|-9h10--------------------------------------|
|-------------------------------------------|


           |--3--|  |--3--|
  S  S S S S  S  S  S  S  S  S  S  E  S  S  E
|------7-9------14----17----14-14-14-16----17--|
|-9-10-----9-10----15----15----15-------14-----|
|----------------------------------------------|
|----------------------------------------------|
|----------------------------------------------|
|----------------------------------------------|


  C#m
                                                   |-----3------|
   +E       +S   +S   +S   E.  +E       +S   +S   +E   S  S  S  S
|-(17)b19==(17)r(17)-(17)-16--(16)b17==(16)r(16)-(16)p14h16p14-13h|
|-----------------------------------------------------------------|
|-----------------------------------------------------------------|
|-----------------------------------------------------------------|
|-----------------------------------------------------------------|
|-----------------------------------------------------------------|


  Fm
                                               ~~~~~~~~
   |--3--|  |--3--|  |--3--|  |-3--| |--3--|
   S  S  S  S  S  S  S  S  S  S S  S S  S  S  +E   +Q
|-14p13-13----------------------------------------------||
|----------15-12h14p12s10h12p10s9h10p9------------------||
|--------------------------------------11-10-(10)-(10)--||
|-------------------------------------------------------||
|-------------------------------------------------------||
|-------------------------------------------------------||


  Bm                    E
  Gtr IV
    Q      Q   Q   Q     a  Q   Q   Q   Q
|-----------------14--|-14p12--------------|
|--12-----14--15------|--------15--14--12--|
|---------------------|--------------------|
|---------------------|--------------------|
|---------------------|--------------------|
|---------------------|--------------------|
|
| Gtr III
|   Q      Q   Q   Q     a  Q   Q   Q   Q
|-----------------10--|-10p=9--------------|
|---9-----10--12------|--------12--10---9--|
|-(10)\---------------|--------------------|
|---------------------|--------------------|
|---------------------|--------------------|
|---------------------|--------------------|
   +E   E  Q   H


  A                 D
   Q   Q   Q   Q     a  a  Q   Q   Q   Q
|-----------------|-----------------------|
|-----12--14--17--|-15h17p15--14--12------|
|-14--------------|-------------------14--|
|-----------------|-----------------------|
|-----------------|-----------------------|
|-----------------|-----------------------|
|
|  Q   Q   Q   Q     a  a  Q   Q   Q   Q
|--------------9--|--7h=9p=7--------------|
|--7---9--10------|-----------10---9---7--|
|-----------------|-----------------------|
|-----------------|-----------------------|
|-----------------|-----------------------|
|-----------------|-----------------------|


  G                 C#
   Q   Q   Q   Q     a  a  Q   Q   Q   Q
|-----------------|-----------------------|
|---------12--15--|-14h15p14--12----------|
|-12--14----------|---------------14--13--|
|-----------------|-----------------------|
|-----------------|-----------------------|
|-----------------|-----------------------|
|
|  Q   Q   Q   Q     a  a  Q   Q   Q   Q
|-----------------|-----------------------|
|----------9--12--|-10h12p10---9----------|
|--9--11----------|---------------11--10--|
|-----------------|-----------------------|
|-----------------|-----------------------|
|-----------------|-----------------------|


  A           Bm            C#          E
    E.  E.  E   E.  E.  E     E.  E.  E   E.  E.  E
|-------------------------|--------------------------|
|-/14--12-----/15--14--12-|-/17--15--14-/17--15--14--|
|----------14-------------|--------------------------|
|-------------------------|--------------------------|
|-------------------------|--------------------------|
|-------------------------|--------------------------|
|
|   E.  E.  E   E.  E.  E     E.  E.  E   E.  E.  E
|-------------------------|--------------------------|
|-/10---9---7-/12--10---9-|-/14--12-----/14--12------|
|-------------------------|----------14----------14--|
|-------------------------|--------------------------|
|-------------------------|--------------------------|
|-------------------------|--------------------------|


  Bm                E
   Q   Q   Q   Q     a  a  Q   Q   Q   Q
|---------14--17--|-16h17p16--14----------|
|-15--17----------|---------------17--15--|
|-----------------|-----------------------|
|-----------------|-----------------------|
|-----------------|-----------------------|
|-----------------|-----------------------|
|
|  Q   Q   Q   Q     a  a  Q   Q   Q   Q
|-------------14--|-12h14p12--------------|
|-12--14--15------|-----------15--14--12--|
|-----------------|-----------------------|
|-----------------|-----------------------|
|-----------------|-----------------------|
|-----------------|-----------------------|


  A                 D
   Q   Q   Q   Q     a  a  Q   Q   Q   Q
|-------------16--|-14h16p14---------------|
|-14--15--17------|-----------17--15--14---|
|-----------------|------------------------|
|-----------------|------------------------|
|-----------------|------------------------|
|-----------------|------------------------|
|
|  Q   Q   Q   Q     a  a  Q   Q   Q   Q
|-----------------|------------------------|
|-----12--14--17--|-15h17p15--14--12-------|
|-14--------------|-------------------14---|
|-----------------|------------------------|
|-----------------|------------------------|
|-----------------|------------------------|


  G                 C#
   Q   Q   Q   Q     a  a  Q   Q   Q   Q
|-------------14--|-13h14p13--------------|
|-12--14--15------|-----------15--14--12--|
|-----------------|-----------------------|
|-----------------|-----------------------|
|-----------------|-----------------------|
|-----------------|-----------------------|
|
|  Q   Q   Q   Q     a  a  Q   Q   Q   Q
|-----------------|-----------------------|
|---------12--15--|-14h15p14--12----------|
|-12--14----------|---------------14--13--|
|-----------------|-----------------------|
|-----------------|-----------------------|
|-----------------|-----------------------|


  D
                  ~~~~              ~~~~~           ~~~~
   a      Q      +Q    a      Q    +Q        a      W
|--------10-----(10)---------12---(12)----|--------14----------------|
|-13b15-(13)----(13)--15b17-(15)--(15)----|-17b19-(17)---------------|
|-----------------------------------------|--------------------------|
|-----------------------------------------|--------------------------|
|-----------------------------------------|--------------------------|
|-----------------------------------------|--------------------------|
|
|         ~~~~~~
|                                                           |--3--|
|         H.                       +E   E           H       q  q  Q
|-----------------------------------------|---------------/14-16-17--|
|--------13b15--------------------(13)\---|--------------------------|
|-----------------------------------------|--------------------------|
|-----------------------------------------|--------------------------|
|-----------------------------------------|--------------------------|
|-----------------------------------------|--------------------------|


                                               D.S.S. al Dbl. Coda
  Bm
                                                              ~~~~~
   Q.       E      E      S      S      +S   E      S        +W
|-17b19====17pb19-17pb19-17pb19-17pb19-(17)-17pb19-17pb19-|-(17)r-----||
|---------------------------------------------------------|-----------||
|---------------------------------------------------------|-----------||
|---------------------------------------------------------|-----------||
|---------------------------------------------------------|-----------||
|---------------------------------------------------------|-----------||
|
|                                                             ~~~~~
|  W                                                         +W
|-17b19===================================================|=(17)r-----||
|---------------------------------------------------------|-----------||
|---------------------------------------------------------|-----------||
|---------------------------------------------------------|-----------||
|---------------------------------------------------------|-----------||
|---------------------------------------------------------|-----------||


                                   Chorus
  &&
  A5                                B5         E5          A5         D5
  Gtr I
  H    a a H         +W             W           W          W            W
|------------------|-------------||----------|-----------|----------|--------|
|----------3b5=====|=(3)r--------||----------|-----------|----------|--------|
|--------x---------|-------------||-4--------|-/9--------|----------|--------|
|-2----x-----------|-------------||-x--------|--x--------|-7--------|-/12----|
|-0----------------|-------------||-2--------|-/7--------|-x--------|---x----|
|------------------|-------------||----------|-----------|-5--------|-/10----|


  B5   Asus4  G#5  C5     C#5                        B5   F#5
  H    H      H    H      W          H.      +Q      H      H
|-----------|-----------|----------|---------------|-------------|
|-----------|-4---------|----------|---------------|-------------|
|------7----|-x----5----|-6--------|-6-------(6)\--|-4----/11----|
|-9----7----|-6----5----|-6--------|---------------|-x------x----|
|-x----x----|-x----3----|-4--------|---------------|-2-----/9----|
|-7----5----|-4---------|----------|---------------|-------------|


  E5   G#5    A5   E5      D5   C#5    B5   C#5    D5   E5
  H    H      H     H      H    H      H    H      H    H
|-----------|------------|-----------|-----------|-----------||
|-----------|------------|-----------|-----------|-----------||
|-9---------|------/9----|-7----6----|-4----6----|-7----9----||
|-x----6----|-7-----x----|-x----x----|-x----x----|-x----x----||
|-7----x----|-x----/7----|-5----4----|-2----4----|-5----7----||
|------4----|-5----------|-----------|-----------|-----------||


   Outro
    N.C.(F#m)               (D)
    W                       W
    Gtrs I, II
    PM        PM            PM----|   PM
    E E S E S E S S +E  E   E E S E S E S S +E  E  8x
||------------------------|------------------------||
||o-----------------------|-----------------------o||
||------------------------|------------------------||
||----4---2---------------|------------------------||
||o-----------5---4-(4)-2-|---5---4---2-----------o||
||--2---------------------|-2-------------5-(5)-4--||


               F#5                  F#5
  Gtrs I, II
    Q           q         Q          q
                |                    |
                /                    /

  Gtr III
    S  S  S  S  S  S S  S S  S S  S  S  S  S S
|--12-14-12-10-12-10-9-10-9----9---------------|
|---------------------------12---12-10-12-10-9-|
|----------------------------------------------|
|----------------------------------------------|
|----------------------------------------------|
|----------------------------------------------|


                       H.=H
           F#5 D5                                 F#5
   Q       E    E      +H       +W                W                +W
           |    |       |        |                |                 |
           /    /       /        /                /                 /

                                                  |-3-|
   S S S S S S +E      +H       +Q   +Q   Q  Q    E E E +H.        +W
|-----------------------------|-----------------|----------------|--------*|
|-10-9-7-9-7------------------|-----------------|----------------|--------*|
|------------9-(9)b11==(9)----|-(9)r=(9)--------|----------------|--------*|
|-----------------------------|-----------7p=6--|-7p6------------|--------*|
|-----------------------------|-----------------|-----9-(9)------|-(9)----*|
|-----------------------------|-----------------|----------------|--------*|



Duration Legend
---------------
W - whole; H - half; Q - quarter; E - 8th; S - 16th; T - 32nd; X - 64th; a - acciaccatura
+ - note tied to previous; . - note dotted; .. - note double dotted
Uncapitalized letters represent notes that are staccato (1/2 duration)
Irregular groupings are notated above the duration line
Duration letters will always appear directly above the note/fret number it represents the
duration for.  Duration letters with no fret number below them represent rests.  Multi-
bar rests are notated in the form Wxn, where n is the number of bars to rest for.  Low
melody durations appear below the staff

Tablature Legend
----------------
 h   - hammer-on
 p   - pull-off
 b   - bend
 pb  - pre-bend
 r   - bend release (if no number after the r, then release immediately)
 /\  - slide into or out of (from/to "nowhere")
 s   - legato slide
 S   - shift slide
 - natural harmonic
[n]  - artificial harmonic
n(n) - tapped harmonic
 ~   - vibrato
 tr  - trill
 T   - tap
 TP  - trem. picking
 PM  - palm muting
\n/  - tremolo bar dip; n = amount to dip
 \n  - tremolo bar down
 n/  - tremolo bar up
/n\  - tremolo bar inverted dip
 =   - hold bend; also acts as connecting device for hammers/pulls
 <> - volume swell (louder/softer)
 x   - on rhythm slash represents muted slash
 o   - on rhythm slash represents single note slash

Misc Legend
-----------
 |  - bar
||  - double bar
||o - repeat start
o|| - repeat end
*|  - double bar (ending)
 :  - bar (freetime)
 $  - Segno
 &  - Coda
Tempo markers -  = BPM(8/16=s8/s16), where s8 = swing 8ths, s16 = swing 16ths

comments
We did not receive enough feedback on this tab! Please rate:
print report bad tab
1 2 3 4 5
I want to post or [tab]
guest
You may want to rate the tab now too:
select rating
Please do not post tabs as comments. Select "correction" instead!