Oops, an error
Loading. Please wait.

La Cancion Del Guerrero Tab

ver1
ver1

Whole song

Interactive

More versions @911Tabs.com
1,432 views 1 this week
no commentswrite comment
1 2 3 4 5
please rate
add to favorites launch autoscroll
font size
0
reset
Autoscroll
+/-
esc
set tempo
stop
Contributor
WARNING: You are trying to view
                                    content from Ultimate-Guitar.com
                                    in an unauthorized application,
                                    which is prohibited.

                                    Please use an official Ultimate
                                    Guitar Tabs application for iPhone,
                                    iPad or Android to access legitimate
                                    chords, guitar, bass, and drum tabs
                                    from Ultimate-Guitar.com database.

                                    Type "ultimate guitar tabs" in Apple
                                    App Store's or Android Market's
                                    search to find the application.
#----------------------------------PLEASE NOTE---------------------------------#
#This file is the author's own work and represents their interpretation of the #
#song. You may only use this file for private study, scholarship, or research. #
#------------------------------------------------------------------------------#

LA CANCIÓN DEL GUERRERO
As recorded by Rata Blanca
(From the 2002 Album EL CAMINO DEL FUEGO)

Transcribed by Rogelio Dionicio (Red Moon)
	

Words and Music by Walter Giardino
Arranged by Rata Blanca

F5
1 3 3 x x x
	
F#5
2 4 4 x x x
	
C#5
x 4 6 6 x x
	
E5
0 2 2 x x x

A5
5 7 7 x x x
	
B5
x 2 4 4 x x
	
D5
x 5 7 7 x x
	
G#5
4 6 6 x x x

G5
3 5 5 x x x

Gtr I (E A D G B E) - 'Untitled'
Gtr II (E A D G B E) - 'Untitled'

 Intro
  Moderately Fast Rock Q=166
      B5 A5F#5     A5 B5 A5F#E5F#5     B5 A5F#E5A5        B5
 4/4
  Gtr I
  PM|        PM|                   PM|
  E E Q  E E E E   Q  Q  E E E E   E E Q  E E E E   +Q.   E +H
|----------------|---------------|----------------|----------------|
|----------------|---------------|----------------|----------------|
|-----4--2-------|-2--4--2-------|-----4--2-----2-|-(2)---4-(4)----|
|-----4--2-4-----|-2--4--2-4-2-4-|-----4--2-4-2-2-|-(2)---4-(4)----|
|----------4-----|---------4-2-4-|----------4-2---|----------------|
|-2-2--------2-2-|---------------|-2-2------------|----------------|


      B5 A5F#5     A5 B5 A5F#E5F#5     B5 A5F#E5A5        E5
  PM|        PM|                   PM|
  E E Q  E E E E   Q  Q  E E E E   E E Q  E E E E   +Q.   E +H
|----------------|---------------|----------------|----------------||
|----------------|---------------|----------------|----------------||
|-----4--2-------|-2--4--2-------|-----4--2-----2-|-(2)------------||
|-----4--2-4-----|-2--4--2-4-2-4-|-----4--2-4-2-2-|-(2)---2-(2)----||
|----------4-----|---------4-2-4-|----------4-2---|-------2-(2)----||
|-2-2--------2-2-|---------------|-2-2------------|----------------||


        B5 A5F#5     A5 B5 A5F#E5F#5     B5 A5F#E5A5        B5
   4/4
    Gtrs I, II
    PM|        PM|                   PM|
    E E Q  E E E E   Q  Q  E E E E   E E Q  E E E E   +Q.   E +H
||-----------------|---------------|----------------|----------------|
||o----------------|---------------|----------------|----------------|
||------4--2-------|-2--4--2-------|-----4--2-----2-|-(2)---4-(4)----|
||------4--2-4-----|-2--4--2-4-2-4-|-----4--2-4-2-2-|-(2)---4-(4)----|
||o----------4-----|---------4-2-4-|----------4-2---|----------------|
||--2-2--------2-2-|---------------|-2-2------------|----------------|


      B5 A5F#5        B5 A5F#E5F#5     B5 A5F#E5A5        E5
  PM|        PM|                   PM|
  E E Q  E E E E   Q  Q  E E E E   E E Q  E E E E   +Q.   E +H
|----------------|---------------|----------------|-----------------||
|----------------|---------------|----------------|----------------o||
|-----4--2-------|-2--4--2-------|-----4--2-----2-|-(2)-------------||
|-----4--2-4-----|-2--4--2-4-2-4-|-----4--2-4-2-2-|-(2)---2-(2)-----||
|----------4-----|---------4-2-4-|----------4-2---|-------2-(2)----o||
|-2-2--------2-2-|---------------|-2-2------------|-----------------||


   Verse
    F#5                                     B5 A5            B5 A5
      PM----------------------------------|      PM--------|      PM--|
    E E E E E E E E   E E E E E E E E   E E Q  E E E E   E E Q  E E E E
||------------------|-----------------|----------------|----------------|
||o-----------------|-----------------|----------------|----------------|
||------------------|-----------------|-----4--2-------|-----4--2-------|
||------------------|-----------------|-----4--2-------|-----4--2-------|
||o-4---------------|-----------------|----------------|----------------|
||--2-2-2-2-2-2-2-2-|-2-2-2-2-2-2-2-2-|-2-2------2-2-2-|-2-2------2-2-2-|


                                     1.
  F#5                                 D5   A5   E5
    PM----------------------------|
  E E E E E E E E   E E E E E E E E   Q.   Q.   Q
|-----------------|-----------------|--------------|
|-----------------|-----------------|--------------|
|-----------------|-----------------|-7------------|
|-----------------|-----------------|-7----7----2--|
|-4---------------|-----------------|-5----7----2--|
|-2-2-2-2-2-2-2-2-|-2-2-2-2-2-2-2-2-|------5----0--|


                      2.
                       D5   A5   E5                   C#5
                                          PM--------|
  +E  E E E E Q.       Q.   Q.   Q    +E  E E E E E E E
|-------------------||--------------|-------------------||
|------------------o||--------------|-------------------||
|-------2---2-1\----||-7------------|-----------------6-||
|-(2)-2---2---------||-7----7----2--|-(2)-------------6-||
|-(2)-2------------o||-5----7----2--|-(2)-5-4-2-------4-||
|-(0)---------------||------5----0--|-(0)-------5-4-2---||


 Chorus
  C#5          F#5        E5         A5
  +W           W          W          W
|------------|----------|----------|------|
|------------|----------|----------|------|
|-(6)--------|----------|----------|------|
|-(6)--------|-4--------|-2--------|-7----|
|-(4)--------|-4--------|-2--------|-7----|
|------------|-2--------|-0--------|-5----|


  E5                D5                C#5               C#5
    PM|   PM|   PM    PM|   PM|   PM    PM|   PM|   PM
  E E E E E E E E   E E E E E E E E   E E E E E E E E   H.      +Q
|-----------------|-----------------|-----------------|----------------||
|-----------------|-----------------|-----------------|----------------||
|-----------------|-----------------|-----------------|-6-------(6)\---||
|-9-----9-----9---|-7-----7-----7---|-6-----6-----6---|-6-------(6)\---||
|-7-7-7-7-7-7-7-7-|-5-5-5-5-5-5-5-5-|-4-4-4-4-4-4-4-4-|-4-------(4)\---||
|-----------------|-----------------|-----------------|----------------||


   Interlude
        B5 A5F#5     A5 B5 A5F#E5F#5     B5 A5F#E5A5        B5
   4/4
    PM|        PM|                   PM|
    E E Q  E E E E   Q  Q  E E E E   E E Q  E E E E   +Q.   E +H
||-----------------|---------------|----------------|----------------|
||o----------------|---------------|----------------|----------------|
||------4--2-------|-2--4--2-------|-----4--2-----2-|-(2)---4-(4)----|
||------4--2-4-----|-2--4--2-4-2-4-|-----4--2-4-2-2-|-(2)---4-(4)----|
||o----------4-----|---------4-2-4-|----------4-2---|----------------|
||--2-2--------2-2-|---------------|-2-2------------|----------------|


      B5 A5F#5        B5 A5F#E5F#5     B5 A5F#E5A5        E5
  PM|        PM|                   PM|
  E E Q  E E E E   Q  Q  E E E E   E E Q  E E E E   +Q.   E +H
|----------------|---------------|----------------|-----------------||
|----------------|---------------|----------------|----------------o||
|-----4--2-------|-2--4--2-------|-----4--2-----2-|-(2)-------------||
|-----4--2-4-----|-2--4--2-4-2-4-|-----4--2-4-2-2-|-(2)---2-(2)-----||
|----------4-----|---------4-2-4-|----------4-2---|-------2-(2)----o||
|-2-2--------2-2-|---------------|-2-2------------|-----------------||


   2nd Verse
    F#5                                     B5 A5            B5 A5
      PM----------------------------------|      PM--------|      PM--|
    E E E E E E E E   E E E E E E E E   E E Q  E E E E   E E Q  E E E E
||------------------|-----------------|----------------|----------------|
||o-----------------|-----------------|----------------|----------------|
||------------------|-----------------|-----4--2-------|-----4--2-------|
||------------------|-----------------|-----4--2-------|-----4--2-------|
||o-4---------------|-----------------|----------------|----------------|
||--2-2-2-2-2-2-2-2-|-2-2-2-2-2-2-2-2-|-2-2------2-2-2-|-2-2------2-2-2-|


                                     1.
  F#5                                 D5   A5   E5
    PM----------------------------|
  E E E E E E E E   E E E E E E E E   Q.   Q.   Q
|-----------------|-----------------|--------------|
|-----------------|-----------------|--------------|
|-----------------|-----------------|-7------------|
|-----------------|-----------------|-7----7----2--|
|-4---------------|-----------------|-5----7----2--|
|-2-2-2-2-2-2-2-2-|-2-2-2-2-2-2-2-2-|------5----0--|


                      2.
                       D5   A5   E5                   C#5
                                          PM--------|
  +E  E E E E Q.       Q.   Q.   Q    +E  E E E E E E E
|-------------------||--------------|-------------------||
|------------------o||--------------|-------------------||
|-------2---2-1\----||-7------------|-----------------6-||
|-(2)-2---2---------||-7----7----2--|-(2)-------------6-||
|-(2)-2------------o||-5----7----2--|-(2)-5-4-2-------4-||
|-(0)---------------||------5----0--|-(0)-------5-4-2---||


 Chorus
  C#5          F#5        E5         A5
  +W           W          W          W
|------------|----------|----------|------|
|------------|----------|----------|------|
|-(6)--------|----------|----------|------|
|-(6)--------|-4--------|-2--------|-7----|
|-(4)--------|-4--------|-2--------|-7----|
|------------|-2--------|-0--------|-5----|


  E5                D5                C#5               C#5
    PM|   PM|   PM    PM|   PM|   PM    PM|   PM|   PM
  E E E E E E E E   E E E E E E E E   E E E E E E E E   H    +Q.    E
|-----------------|-----------------|-----------------|----------------||
|-----------------|-----------------|-----------------|----------------||
|-----------------|-----------------|-----------------|-6----(6)\------||
|-9-----9-----9---|-7-----7-----7---|-6-----6-----6---|-6----(6)\------||
|-7-7-7-7-7-7-7-7-|-5-5-5-5-5-5-5-5-|-4-4-4-4-4-4-4-4-|-4----(4)\------||
|-----------------|-----------------|-----------------|-------------2--||


   Bridge
    F#5     G#        A           D5        G5
        PM| ~~~~~~PM| ~~~~~~~~PM| ~~~~~~PM| ~~~
    +E  E E E +E  E E E   +E  E E E +E  E E E
||----------------------|---------------------|
||o---------------------|---------------------|
||----------------------|---------------------|
||----------------------|---------------------|
||o-----------------2---|-----2-4-5-(5)-2-----|
||--(2)-4-5-4-(4)-5---5-|-(5)-------------5-3-|


          C#5       F#5
 ~~~~~PM| ~~~~~~PM| ~~~~~~~~PM--------|
  +E  E E E +E  E E E   +E  E E E E E E E
|---------------------|-------------------|
|---------------------|-------------------|
|---------------------|-------------------|
|---------------------|-----------4-------|
|-----2-3-4-(4)-------|---------4---4-----|
|-(3)-----------1-4-2-|-(2)-2-5-------5-2-|


  F#5     G#5       A5          D5        G5
      PM| ~~~~~~PM| ~~~~~~~~PM| ~~~~~~PM| ~~~
  +E  E E E +E  E E E   +E  E E E +E  E E E
|---------------------|---------------------|
|---------------------|---------------------|
|---------------------|---------------------|
|---------------------|---------------------|
|-----------------2---|-----2-4-5-(5)-2-----|
|-(2)-4-5-4-(4)-5---5-|-(5)-------------5-3-|


                       1.                    2.
          B5        C#5                       C#5
 ~~~~~PM| ~~~~~~PM| ~~~~~~~~PM--------|       ~
  +E  E E E +E  E E E   +E  E E E E E E E     W
|---------------------|--------------------||------||
|---------------------|-------------------o||------||
|---------------------|--------------------||-6----||
|---------------------|--------------------||-6----||
|-----0-1-2-(2)-2-3-4-|-(4)-4-2---2-------o||-4----||
|-(3)-----------------|---------5---5-4-2--||------||


 Guitar Solo
                                  F5 F#5
  Gtr I
   H                   Q           E   E     E  E E E   E    E  E  E
                                   |   |     |  | | |   |    |  |  |
                                   /   /     o  / / /   /    /  /  /

  Gtr II
                                       ~~~~~~~~~~~~~~~~~~~~
   S S  S S  S S  S S  S  S  S  S  E   E    +H         +E    E  e  E
|---------------------------------13-/14-|-(14)-------(14)-----14-16-|
|-12p9----9-12p9----9-15p12----12--------|-----------------/14-------|
|------10--------10---------13-----------|---------------------------|
|----------------------------------------|---------------------------|
|----------------------------------------|---------------------------|
|----------------------------------------|---------------------------|


  F#5                                   F#5
   E      E  E  E  E         E   E  E    E   E E E E E E   E
   |      |  |  |  |         |   |  |    |   | | | | | |   |
   o      /  /  /  /         /   /  /    o   / / / / / /   /

          ~~~~                           ~~~~
                   |--3--|
   E     +Q     E  S  S  S  +E   E  E    H..               E
|-16b17-(16)---16-14h16p14-(14)-------|----------------------|
|-------------------------------17-15-|-14-------------------|
|-------------------------------------|------------------/11-|
|-------------------------------------|----------------------|
|-------------------------------------|----------------------|
|-------------------------------------|----------------------|


  F#5                              C#5
    E  E   E    E  E E   E  E      E  E E  E    E    E E  E
    |  |   |    |  | |   |  |      |  | |  |    |    | |  |
    o  /   /    /  / /   /  /      /  o /  /    /    / /  /

                   ~~~~~~~~~       ~~
    |----3----|
   +q    q    q    Q    +E.    S   Q.      E a  S S  E E  E
|--------------------------------|--------------------------|
|--------9---10---12---(12)---10p|=9------10-9h10p9----9----|
|-(11)---------------------------|------------------11---11p|
|--------------------------------|--------------------------|
|--------------------------------|--------------------------|
|--------------------------------|--------------------------|


  C#5                          C#5
   E E  E     E     E E  E E    E  E E E E E      E  E
   | |  |     |     | |  | |    |  | | | | |      |  |
   o /  /     /     / /  / /    o  / / / / /      /  /

                      ~~~~~~~~~~~~~
                                           |-3-|
   E E  E  a  S  S  E Q.        Q.     E E S S S +E  E
|----------------------------|---------------------------|
|----9-----------------------|---------7p6---------------|
|-10---11-10h11p10----8------|-10----------6h7p6-(6)-7---|
|------------------11--------|---------------------------|
|----------------------------|---------------------------|
|----------------------------|---------------------------|


  C#5           F#5
  E E E E E E E E    E  E E E  E E   E   E
  | | | | | | | |    |  | | |  | |   |   |
  o / / / / / / /    o  / / /  / /   /   /

      PM------| ~~~~~~~~
                               |---3---|
  E e E E E E E E   +H         Q   Q   Q
|-----------------|------------------------|
|-----------------|-----------/7p==6h==7---|
|-6-4-------------|------------------------|
|-----7-6-4-6-3-4-|-(4)--------------------|
|-----------------|------------------------|
|-----------------|------------------------|


  F#5                         F#5
    E E E E   E E    E    E    E    E  E E   E E    E    E
    | | | |   | |    |    |    |    |  | |   | |    |    |
    o / / /   / /    /    /    o    /  / /   / /    /    /

    ~~~                                ~~
              |----3----|                    |----3----|
    H         Q    Q    Q      q       Q     Q    Q    Q
|---------------------------|---------14---------------------|
|-/10-----------------------|-12b14--------/14p==13h==14-----|
|-----------/14p==13h==14---|--------------------------------|
|---------------------------|--------------------------------|
|---------------------------|--------------------------------|
|---------------------------|--------------------------------|


  F#5                               C#5
    E E    E    E  E    E   E   E    E       E    E   E  E E E E
    | |    |    |  |    |   |   |    |       |    |   |  | | | |
    o /    /    /  /    /   /   /    /       o    /   /  / / / /

                                                         ~~
    |----3----|
    Q    Q    Q    Q       +E   E    E      +E   +E   E  H
|-/14---16---17---16b17r==(16)-14-|------------------------------|
|---------------------------------|-19b21==(19)-(19)r19p18-------|
|---------------------------------|------------------------------|
|---------------------------------|------------------------------|
|---------------------------------|------------------------------|
|---------------------------------|------------------------------|


  C#5                         C#5
   E  E  E  E       E E E E   E     E    E     E    E    E     E    E
   |  |  |  |       | | | |   |     |    |     |    |    |     |    |
   o  /  /  /       / / / /   o     /    /     /    /    /     /    /

                    ~
            |--3--|
   E  E  E  S  S  S H         S  S  S  S S  S  S S  S  S S  S  S S  S S
|-/9-10-13-10h13p10-9-------|-9-10-13-10p9h10----9------------------------|
|---------------------------|-----------------12---10h12-9h10----9----9---|
|---------------------------|---------------------------------11---11-----|
|---------------------------|---------------------------------------------|
|---------------------------|---------------------------------------------|
|---------------------------|---------------------------------------------|


  C#5                              C#5
  E     E    E    E         E  E E E    +W
  |     |    |    |         |  | | |     |
  o     /    /    /         /  / / /     /

                            ~~~~~~~~~~~~~~~~
                                         |--3--| |--3--|
  S  S  S  S S  S S  S     +H           +Q   Q Q Q  Q  Q
|------------------------------------|---------------------|
|-9h10-12p10-9----9------------------|------/9-9-9-10h12---|
|--------------11---10b11r(10)-------|-(10)----------------|
|------------------------------------|---------------------|
|------------------------------------|---------------------|
|------------------------------------|---------------------|


  F#5              E5
   W                 W
   |                 |
   /                 /

            ~~~~~~~~~~~~
                     |--3--| |-3-|
   H        H       +Q   Q Q Q Q Q
|----------------|------/7-7-7h9-9b10r====|
|-10b12r===10----|-(10)-------------------|
|----------------|------------------------|
|----------------|------------------------|
|----------------|------------------------|
|----------------|------------------------|


  A5           F#5                  B5                    E5
   W            W                    W                    W
   |            |                    |                    |
   /            /                    /                    /

   ~~~                               ~~                   ~
                |--3--| |--3--|            |----3----|         |-3--|
  +W           +Q   Q Q Q  Q  Q      H     Q     +Q  Q    H    Q Q  Q
|-(9)--------|-(9)-/9-9-9-10h12---|-10----10b12r(10)p9--|-7----7h9-10---|
|------------|--------------------|---------------------|---------------|
|------------|--------------------|---------------------|---------------|
|------------|--------------------|---------------------|---------------|
|------------|--------------------|---------------------|---------------|
|------------|--------------------|---------------------|---------------|


  A5                 D5              B5                    C#5
  W                   W              W                     W
  |                   |              |                     |
  /                   /              /                     /

  ~                   ~~             ~                     ~
       |---3----|           |-3-|          |----3-----|         |--3--|
  H    Q    +Q  Q     H     Q Q Q    H     Q     +Q   Q    H    Q  Q  Q
|-9----9b10r(9)p7--|----------7h9--|-7-------------------|----------------|
|------------------|-10----10------|------12b14r(12)p10--|-9----9h10-12---|
|------------------|---------------|---------------------|----------------|
|------------------|---------------|---------------------|----------------|
|------------------|---------------|---------------------|----------------|
|------------------|---------------|---------------------|----------------|


  A5            B5             A5
   W             W             E    E    E    E    E    E    E    E
   |             |             |    |    |    |    |    |    |    |
   /             /             /    o    /    /    /    /    /    /

   ~~            ~~~~~~~~~
                               |---3---| |---3---| |---3---| |---3---|
   H     H       H      H      E  E    E E  E    E E  E    E E  E    E
|-------/9----|-------/10----|-9h10h==12-9h10h==12-9h10h==12-9h10h==12-|
|-10----------|-12-----------|-----------------------------------------|
|-------------|--------------|-----------------------------------------|
|-------------|--------------|-----------------------------------------|
|-------------|--------------|-----------------------------------------|
|-------------|--------------|-----------------------------------------|


  E    E    E    E    E    E    E    E
  |    |    |    |    |    |    |    |
  /    /    /    /    /    /    /    /

  |---3---| |---3---| |---3---| |---3---|
  E  E    E E  E    E E  E    E E  E    E
|-9h10h==12-9h10h==12-9h10h==12-9h10h==12---|
|-------------------------------------------|
|-------------------------------------------|
|-------------------------------------------|
|-------------------------------------------|
|-------------------------------------------|


  E5
  E   E    E   E    E   E    E   E      E   E    E   E    E   E    E   E
  |   |    |   |    |   |    |   |      |   |    |   |    |   |    |   |
  o   /    /   /    /   /    /   /      /   /    /   /    /   /    /   /

  |--3---| |--3---| |--3---| |--3---|   |--3---| |--3---| |--3---| |--3---|
  E E    E E E    E E E    E E E    E   E E    E E E    E E E    E E E    E
|-7h9h==10-7h9h==10-7h9h==10-7h9h==10-|-7h9h==10-7h9h==10-7h9h==10-7h9h==10--|
|-------------------------------------|--------------------------------------|
|-------------------------------------|--------------------------------------|
|-------------------------------------|--------------------------------------|
|-------------------------------------|--------------------------------------|
|-------------------------------------|--------------------------------------|


  F#5
   E    E     E    E     E    E     E    E
   |    |     |    |     |    |     |    |
   o    /     /    /     /    /     /    /

   |---3---|  |---3---|  |---3---|  |---3---|
   E  E    E  E  E    E  E  E    E  E  E    E
|---------------------------------------------|
|-10h12h==14-10h12h==14-10h12h==14-10h12h==14-|
|---------------------------------------------|
|---------------------------------------------|
|---------------------------------------------|
|---------------------------------------------|


   E    E     E    E     E    E     E    E
   |    |     |    |     |    |     |    |
   /    /     /    /     /    /     /    /

   |---3---|  |---3---|  |---3---|  |---3---|
   E  E    E  E  E    E  E  E    E  E  E    E
|----------------------------------------------|
|-10h12h==14-10h12h==14-10h12h==14-10h12h==14--|
|----------------------------------------------|
|----------------------------------------------|
|----------------------------------------------|
|----------------------------------------------|


  C#5
  E    E    E    E    E    E    E    E
  |    |    |    |    |    |    |    |
  o    /    /    /    /    /    /    /

  |---3---| |---3---| |---3---| |---3---|
  E  E    E E  E    E E  E    E E  E    E
|-----------------------------------------|
|-9h10h==12-9h10h==12-9h10h==12-9h10h==12-|
|-----------------------------------------|
|-----------------------------------------|
|-----------------------------------------|
|-----------------------------------------|


  E    E    E    E    E    E    E    E
  |    |    |    |    |    |    |    |
  o    /    /    /    /    /    /    /

  |---3---| |---3---| |---3---| |---3---|
  E  E    E E  E    E E  E    E E  E    E
|------------------------------------------|
|-9h10h==12-9h10h==12-9h10h==12-9h10h==12--|
|------------------------------------------|
|------------------------------------------|
|------------------------------------------|
|------------------------------------------|


  D5
   S S S  S S S S  S S S  S S S  S S  S
   | | |  | | | |  | | |  | | |  | |  |
   o / /  / / / /  / / /  / / /  / /  /

   S S S  S S S S  S S S  S S S  S S  S
|-10p9p7-------------7h9h10p9p7---------|
|--------10p9p7-9h10------------10p9h10-|
|---------------------------------------|
|---------------------------------------|
|---------------------------------------|
|---------------------------------------|


  E5VII
   S  S S  S  S S  S  S S  S  S  S S  S  S  S
   |  | |  |  | |  |  | |  |  |  | |  |  |  |
   o  / /  /  / /  /  / /  /  /  / /  /  /  /

   S  S S  S  S S  S  S S  S  S  S S  S  S  S
|-12p10p9---------------9h10h12p10p9-----------|
|---------12p10p9-10h12--------------12p10h12--|
|----------------------------------------------|
|----------------------------------------------|
|----------------------------------------------|
|----------------------------------------------|


  F#5
   S  S  S  S  S  S  S  S  S  S  S  S  S  S  S  S
   |  |  |  |  |  |  |  |  |  |  |  |  |  |  |  |
   o  /  /  /  /  /  /  /  /  /  /  /  /  /  /  /

   S  S  S  S  S  S  S  S  S  S  S  S  S  S  S  S
|-14p12p10----------------10h12h14p12p10----------|
|----------14p12p10-12h14----------------14p12h14-|
|-------------------------------------------------|
|-------------------------------------------------|
|-------------------------------------------------|
|-------------------------------------------------|


  G#5
   S  S  S  S  S  S  S  S  S  S  S  S  S  S  S  S
   |  |  |  |  |  |  |  |  |  |  |  |  |  |  |  |
   o  /  /  /  /  /  /  /  /  /  /  /  /  /  /  /

   S  S  S  S  S  S  S  S  S  S  S  S  S  S  S  S
|-16p14p12----------------12h14h16p14p12-----------|
|----------15p14p12-14h15----------------15p14h15--|
|--------------------------------------------------|
|--------------------------------------------------|
|--------------------------------------------------|
|--------------------------------------------------|


  D5
   E E E E  E E E E    E E E E  E E E E
   | | | |  | | | |    | | | |  | | | |
   o / / /  / / / /    / / / /  / / / /

            ~~                  ~~
   H        H          H        H
|-------------------|-------------------|
|-------------------|-------------------|
|-14-------13-------|-11-------13-------|
|-------------------|-------------------|
|-------------------|-------------------|
|-------------------|-------------------|


  C#5                                      F#5
   E     E E E  E E E E    E E E E  E  E E  E
   |     | | |  | | | |    | | | |  |  | |  |
   o     / / /  / / / /    / / / /  /  / /  /

                           ~~~~~~~~~~~~
   H            H          H        Q.      E
|-----------------------|--------------------------|
|-----------------------|------------------17b19===|
|-11tr13-------10-------|----------10--------------|
|-----------------------|-13-----------------------|
|-----------------------|--------------------------|
|-----------------------|--------------------------|


                    F#5                           F#5
   +E   E E E E E E  E        +E  E   E   E E E E E
    |   | | | | | |  |         |  |   |   | | | | |
    /   o o o o o o  /         /  o   o   o o o o /

                                                  PM-
   +H..              E        +Q     +Q     Q   E E
|--------------------------|------------------------|
|-(17)--------------17b19==|=(17)r==(17)\-----------|
|--------------------------|------------------------|
|--------------------------|------------------------|
|--------------------------|----------------------4-|
|--------------------------|----------------------2-|


                  F#5
  +E  E E E E E E E   +E  E E E E E E E
   |  | | | | | | |    |  | | | | | |
   /  o o o o o o /    /  o o o o o o

 -------------------------------------|
  +E  E E E E E E E   +E  E E E E E E E
|-------------------|--------------------||
|-------------------|--------------------||
|-------------------|--------------------||
|-----------4-------|-----------4--------||
|-(4)---5---4-----4-|-(4)---5---4-----4--||
|-(2)-2---2---5-4-2-|-(2)-2---2---5-4-2--||


   Verse
    F#5                                       B5 A5            B5 A5
    Gtrs I, II
        PM----------------------------------|      PM--------|      PM--|
    +E  E E E E E E E   E E E E E E E E   E E Q  E E E E   E E Q  E E E E
||--------------------|-----------------|----------------|----------------|
||o-------------------|-----------------|----------------|----------------|
||--------------------|-----------------|-----4--2-------|-----4--2-------|
||--------------------|-----------------|-----4--2-------|-----4--2-------|
||o-(4)---------------|-----------------|----------------|----------------|
||--(2)-2-2-2-2-2-2-2-|-2-2-2-2-2-2-2-2-|-2-2------2-2-2-|-2-2------2-2-2-|


                                     1.
  F#5                                 D5   A5   E5
    PM----------------------------|
  E E E E E E E E   E E E E E E E E   Q.   Q.   Q
|-----------------|-----------------|--------------|
|-----------------|-----------------|--------------|
|-----------------|-----------------|-7------------|
|-----------------|-----------------|-7----7----2--|
|-4---------------|-----------------|-5----7----2--|
|-2-2-2-2-2-2-2-2-|-2-2-2-2-2-2-2-2-|------5----0--|


                      2.
                       D5   A5   E5                   C#5
                 PM                       PM--------|
  +E  E E E E Q  E     Q.   Q.   Q    +E  E E E E E E E
|-------------------||--------------|-------------------||
|------------------o||--------------|-------------------||
|-------2---2-1-----||-7------------|-----------------6-||
|-(2)-2---2---------||-7----7----2--|-(2)-------------6-||
|-(2)-2------------o||-5----7----2--|-(2)-5-4-2-------4-||
|-(0)------------2--||------5----0--|-(0)-------5-4-2---||


 Chorus
  C#5          F#5        E5         A5
  +W           W          W          W
|------------|----------|----------|------|
|------------|----------|----------|------|
|-(6)--------|----------|----------|------|
|-(6)--------|-4--------|-2--------|-7----|
|-(4)--------|-4--------|-2--------|-7----|
|------------|-2--------|-0--------|-5----|


  E5                D5                C#5               C#5
    PM|   PM|   PM    PM|   PM|   PM    PM|   PM|   PM
  E E E E E E E E   E E E E E E E E   E E E E E E E E   H.      +Q
|-----------------|-----------------|-----------------|----------------||
|-----------------|-----------------|-----------------|----------------||
|-----------------|-----------------|-----------------|-6-------(6)\---||
|-9-----9-----9---|-7-----7-----7---|-6-----6-----6---|-6-------(6)\---||
|-7-7-7-7-7-7-7-7-|-5-5-5-5-5-5-5-5-|-4-4-4-4-4-4-4-4-|-4-------(4)\---||
|-----------------|-----------------|-----------------|----------------||


   Outro
        B5 A5F#5     A5 B5 A5F#E5F#5     B5 A5F#E5A5        B5
   4/4
    PM|        PM|                   PM|
    E E Q  E E E E   Q  Q  E E E E   E E Q  E E E E   +Q.   E +H
||-----------------|---------------|----------------|----------------|
||o----------------|---------------|----------------|----------------|
||------4--2-------|-2--4--2-------|-----4--2-----2-|-(2)---4-(4)----|
||------4--2-4-----|-2--4--2-4-2-4-|-----4--2-4-2-2-|-(2)---4-(4)----|
||o----------4-----|---------4-2-4-|----------4-2---|----------------|
||--2-2--------2-2-|---------------|-2-2------------|----------------|


      B5 A5F#5        B5 A5F#E5F#5     B5 A5F#E5A5        E5
  PM|        PM|                   PM|
  E E Q  E E E E   Q  Q  E E E E   E E Q  E E E E   +Q.   E +H      3x
|----------------|---------------|----------------|-----------------||
|----------------|---------------|----------------|----------------o||
|-----4--2-------|-2--4--2-------|-----4--2-----2-|-(2)-------------||
|-----4--2-4-----|-2--4--2-4-2-4-|-----4--2-4-2-2-|-(2)---2-(2)-----||
|----------4-----|---------4-2-4-|----------4-2---|-------2-(2)----o||
|-2-2--------2-2-|---------------|-2-2------------|-----------------||



Duration Legend
---------------
W - whole; H - half; Q - quarter; E - 8th; S - 16th; T - 32nd; X - 64th; a - acciaccatura
+ - note tied to previous; . - note dotted; .. - note double dotted
Uncapitalized letters represent notes that are staccato (1/2 duration)
Irregular groupings are notated above the duration line
Duration letters will always appear directly above the note/fret number it represents the
duration for.  Duration letters with no fret number below them represent rests.  Multi-
bar rests are notated in the form Wxn, where n is the number of bars to rest for.  Low
melody durations appear below the staff

Tablature Legend
----------------
 h   - hammer-on
 p   - pull-off
 b   - bend
 pb  - pre-bend
 r   - bend release (if no number after the r, then release immediately)
 /\  - slide into or out of (from/to "nowhere")
 s   - legato slide
 S   - shift slide
<n> - natural harmonic
[n]  - artificial harmonic
n(n) - tapped harmonic
 ~   - vibrato
 tr  - trill
 T   - tap
 TP  - trem. picking
 PM  - palm muting
\n/  - tremolo bar dip; n = amount to dip
 \n  - tremolo bar down
 n/  - tremolo bar up
/n\  - tremolo bar inverted dip
 =   - hold bend; also acts as connecting device for hammers/pulls
 <> - volume swell (louder/softer)
 x   - on rhythm slash represents muted slash
 o   - on rhythm slash represents single note slash

Misc Legend
-----------
 |  - bar
||  - double bar
||o - repeat start
o|| - repeat end
*|  - double bar (ending)
 :  - bar (freetime)
 $  - Segno
 &  - Coda
Tempo markers - <E/E./Q/Q./H/H.> = BPM(8/16=s8/s16), where s8 = swing 8ths, s16 = swing 16ths

comments
We did not receive enough feedback on this tab! Please rate:
print report bad tab
1 2 3 4 5
I want to post or [tab]
guest
You may want to rate the tab now too:
select rating
Please do not post tabs as comments. Select "correction" instead!