Oops, an error
Loading. Please wait.

La Leyenda Del Hada Y El Mago Tab

ver1
ver1
More versions @911Tabs.com
48,658 views 39 this week
no commentswrite comment
1 2 3 4 5
please rate
Autoscroll
+/-
esc
set tempo
stop
Contributor
Hey! There's an official Ultimate Guitar app which is ideal
for learning songs when you're away from computer. Get the app
WARNING: You are trying to view
                                    content from Ultimate-Guitar.com
                                    in an unauthorized application,
                                    which is prohibited.

                                    Please use an official Ultimate
                                    Guitar Tabs application for iPhone,
                                    iPad or Android to access legitimate
                                    chords, guitar, bass, and drum tabs
                                    from Ultimate-Guitar.com database.

                                    Type "ultimate guitar tabs" in Apple
                                    App Store's or Android Market's
                                    search to find the application.
#----------------------------------PLEASE NOTE---------------------------------#
#This file is the author's own work and represents their interpretation of the #
#song. You may only use this file for private study, scholarship, or research. #
#------------------------------------------------------------------------------#

LA LEYENDA DEL HADA Y EL MAGO
As recorded by Rata Blanca
(From the 1990 Album MAGOS, ESPADAS Y ROSAS)

Transcribed by Leandro Perazza (Leahorsie@yahoo.com.ar )
	

Words and Music by Walter Giardino

E5
0 2 x x x x
	
C5
8 10 10 x x x
	
B5
7 9 9 x x x
	
C#5
x 4 6 x x x

E5VII
x 7 9 9 x x
	
D5
x 5 7 7 x x
	
C5III
x 3 5 5 x x
	
B5II
x 2 4 4 x x

Bb5
x 1 3 3 x x

Gtr I (E A D G B E) - 'Gtr 1'
Gtr II (E A D G B E) - 'Gtr 2'
Gtr III (E A D G B E) - 'Gtr 3'
Gtr IV (E A D G B E) - 'Gtr 4'

              Intro
  Fast Rock Q=150
               (E5)
 4/4
  Gtrs I, II
                     PM--|       PM----------------------------|
               |-3-| |-3-| |-3-| |-3-|   |-3-| |-3-| |-3-| |-3-|
  W            E E E E E E E E E E E E   E E E E E E E E E E E E
|----------||--------------------------|-------------------------|
|----------||o-------------------------|-------------------------|
|----------||--------------------------|-------------------------|
|----------||--------------------------|-------------------------|
|----------||o-------------------------|-------------------------|
|----------||--3-0-0-0-0-0-3-0-0-0-0-0-|-3-2-0-5-3-2-3-0-0-0-0-0-|


  (C5)
      PM----|       PM----------------------------|
  |-3-| |-3-| |-3-| |-3-|   |-3-| |-3-| |-3-| |-3-|
  E E E E E E E E E E E E   E E E E E E E E E E E E
|-------------------------|-------------------------|
|-------------------------|-------------------------|
|-------------------------|-------------------------|
|-------------------------|-------------------------|
|-------------------------|-------------------------|
|-3-0-0-0-0-0-3-0-0-0-0-0-|-3-2-0-5-3-2-3-0-0-0-0-0-|


  (E5)
        PM--|       PM----------------------------|
  |-3-| |-3-| |-3-| |-3-|   |-3-| |-3-| |-3-| |-3-|
  E E E E E E E E E E E E   E E E E E E E E E E E E
|-------------------------|-------------------------|
|-------------------------|-------------------------|
|-------------------------|-------------------------|
|-------------------------|-------------------------|
|-------------------------|-------------------------|
|-3-0-0-0-0-0-3-0-0-0-0-0-|-3-2-0-5-3-2-3-0-0-0-0-0-|


  (C5)
        PM--|       PM--|
  |-3-| |-3-| |-3-| |-3-|   |-3-| |-3-| |-3-| |-3-|
  E E E E E E E E E E E E   E E E E E E E E E E E E
|-------------------------|-------------------------||
|-------------------------|-------------------------||
|-------------------------|-------------------------||
|-------------------------|-------------------------||
|-------------------------|---------2-3-5-3-2-------||
|-3-0-0-0-0-0-3-0-0-0-0-0-|-0-2-3-5-----------5-3-2-||


 Verse 1, 2, and 3
  $
  (E5)                      (D5)
  Gtr II
  PM----------------------------------------------|
  |-3-| |-3-| |-3-| |-3-|   |-3-| |-3-| |-3-| |-3-|
  E E E E E E E E E E E E   E E E E E E E E E E E E
|-------------------------|-------------------------|
|-------------------------|-------------------------|
|-------------------------|-------------------------|
|-------------------------|-------------------------|
|-7-7-7-7-7-7-7-7-7-7-7-7-|-5-5-5-5-5-5-5-5-5-5-5-5-|
|-------------------------|-------------------------|


  (E5)                      (B5)              (A5)
  PM----------------------------------------------|
  |-3-| |-3-| |-3-| |-3-|   |-3-| |-3-| |-3-| |-3-|
  E E E E E E E E E E E E   E E E E E E E E E E E E
|-------------------------|-------------------------|
|-------------------------|-------------------------|
|-------------------------|-------------------------|
|-------------------------|-------------------------|
|-7-7-7-7-7-7-7-7-7-7-7-7-|-------------------------|
|-------------------------|-7-7-7-7-7-7-7-7-7-5-5-5-|


  (G5)                      (D5)
  PM----------------------------------------------|
  |-3-| |-3-| |-3-| |-3-|   |-3-| |-3-| |-3-| |-3-|
  E E E E E E E E E E E E   E E E E E E E E E E E E
|-------------------------|-------------------------|
|-------------------------|-------------------------|
|-------------------------|-------------------------|
|-------------------------|-------------------------|
|-------------------------|-5-5-5-5-5-5-5-5-5-5-5-5-|
|-3-3-3-3-3-3-3-3-3-3-3-3-|-------------------------|


  (C5)        (B5)          (E5)        C5 B5
                            Gtr I
  W                         H           Q  Q
                                        |  |
                                        /  /

  PM----------------------------------|
  |-3-| |-3-| |-3-| |-3-|   |-3-| |-3-|
  E E E E E E E E E E E E   E E E E E E Q  Q
|-------------------------|-------------------|
|-------------------------|-------------------|
|-------------------------|-------------5--4--|
|-------------------------|-------------5--4--|
|-3-3-3-3-3-3-2-2-2-2-2-2-|-------------3--2--|
|-------------------------|-0-0-0-0-0-0-------|


  (E5)                      (D5)
  PM----------------------------------------------|
  |-3-| |-3-| |-3-| |-3-|   |-3-| |-3-| |-3-| |-3-|
  E E E E E E E E E E E E   E E E E E E E E E E E E
|-------------------------|-------------------------|
|-------------------------|-------------------------|
|-------------------------|-------------------------|
|-------------------------|-------------------------|
|-7-7-7-7-7-7-7-7-7-7-7-7-|-5-5-5-5-5-5-5-5-5-5-5-5-|
|-------------------------|-------------------------|


  (E5)                      (B5)
  PM----------------------------------------------|
  |-3-| |-3-| |-3-| |-3-|   |-3-| |-3-| |-3-| |-3-|
  E E E E E E E E E E E E   E E E E E E E E E E E E
|-------------------------|-------------------------|
|-------------------------|-------------------------|
|-------------------------|-------------------------|
|-------------------------|-------------------------|
|-7-7-7-7-7-7-7-7-7-7-7-7-|-------------------------|
|-------------------------|-7-7-7-7-7-7-7-8-7-5-7-5-|


  (G5)                      (D5)
  PM----------------------------------------------|
  |-3-| |-3-| |-3-| |-3-|   |-3-| |-3-| |-3-| |-3-|
  E E E E E E E E E E E E   E E E E E E E E E E E E
|-------------------------|-------------------------|
|-------------------------|-------------------------|
|-------------------------|-------------------------|
|-------------------------|-------------------------|
|-------------------------|-5-5-5-5-5-5-5-5-5-5-5-5-|
|-3-3-3-3-3-3-3-3-3-3-3-3-|-------------------------|


  (C5)        (B5)          (E5)
  PM----------------------------------------------|
  |-3-| |-3-| |-3-| |-3-|   |-3-| |-3-| |-3-| |-3-|
  E E E E E E E E E E E E   E E E E E E E E E E E E
|-------------------------|-------------------------||
|-------------------------|-------------------------||
|-------------------------|-------------------------||
|-------------------------|-------------------------||
|-3-3-3-3-3-3-2-2-2-2-2-2-|-------------------------||
|-------------------------|-0-0-0-0-0-0-0-0-0-0-0-0-||


 Pre-Chorus
  C5         E5         D5   F#5    G5   G#5
  Gtr II
  W          W          H    H      H    H
|----------|----------|-----------|-----------|
|----------|----------|-----------|-----------|
|-5--------|----------|-2---------|-----------|
|-5--------|-2--------|-0---------|-----------|
|-3--------|-2--------|------4----|-5----6----|
|----------|-0--------|------2----|-3----4----|


  A5         Bb5        B5             Eb5
                                 ~~~
  W          W          H.      +Q     H       H
|----------|----------|--------------|---------------||
|----------|----------|--------------|---------------||
|----------|----------|--------------|-8----/(11)----||
|----------|----------|-9-------(9)--|-x-------x-----||
|-7--------|-8--------|-9------------|-6-----/(9)----||
|-5--------|-6--------|-7-------(7)--|---------------||


 Chorus
  E5VII  D5     C5III        D5   C5III
  Gtr II
   H     H      W            H    H
   |     |      |            |    |
   /     /      /            /    /

  Gtr I
   H     H      H     H      H    H
|-------------|------------|-----------|
|-------------|------------|-----------|
|--9-----7----|-5----/9----|-7----5----|
|--9----------|-5-----x----|-7---------|
|--7-----5----|-3----/7----|-5----3----|
|-(0)---------|------------|-----------|


  B5II            C5IIIB5II   Bb5
  W               H    H      W
  |               |    |      |
  /               /    /      /

  H     a  H      H    H      H    H     a
|---------------|-----------|----------------|
|---------------|-----------|----------------|
|-4----(4)s7----|-5----4----|-3--------------|
|---------------|-5---------|----------------|
|-2----(2)s5----|-3----2----|-1---------(x)--|
|---------------|-----------|------2---------|


                                           To Coda
  N.C.
  PM----------------------------------------------|
  |-3-| |-3-| |-3-| |-3-|   |-3-| |-3-| |-3-| |-3-|
  E E E E E E E E E E E E   E E E E E E E E E E E E
|-------------------------|--------------------------||
|-------------------------|-------------------------o||
|-------------------------|-------------5-5-5-4-4-4--||
|-------------------------|-5-5-5-4-4-4--------------||
|-2-2-2-1-1-1-3-3-3-2-2-2-|-------------------------o||
|-------------------------|--------------------------||


 Guitar Solo
  (E5)                         (B5)           (E5)
  Gtr II
   |-3-| |-3--| |-3--| |-3-|   |--3---| |-3-|  |-3-| |-3-|
   E E E E E  E E E  E E E E   E    E E E E E  E E E E E E
   | | | | |  | | |  | | | |   |    | | | | |  | | | | | |
   o / / / /  / / /  / / / /   o    / / / / /  o / / / / /

  Gtr III
   PM----------------------|                   ~~
   |-3-| |-3--| |-3--| |-3-|   |--3---| |-3-|
   E E E E E  E E E  E E E E   S S  E E E E E  H
|-12-7-----------------------|-----------------------------|
|------8-------------------8-|----------8-7----------------|
|--------9---------------9---|-8h9h11p9-----8-/9-----------|
|----------9-----------9-----|-----------------------------|
|------------10-7-9-10-------|-----------------------------|
|----------------------------|-----------------------------|


  (E5)                         (B5)           (C5)
   |-3-| |-3--| |-3--| |-3-|   |--3---| |-3-|  |-3-| |-3-|
   E E E E E  E E E  E E E E   E    E E E E E  E E E E E E
   | | | | |  | | |  | | | |   |    | | | | |  | | | | | |
   o / / / /  / / /  / / / /   o    / / / / /  o / / / / /

   PM----------------------|                   ~~
   |-3-| |-3--| |-3--| |-3-|   |--3---| |-3-|
   E E E E E  E E E  E E E E   S S  E E E E E  H
|-12-7-----------------------|-----------------------------|
|------8-------------------8-|----------8-7----------------|
|--------9---------------9---|-8h9h11p9-----8-/9-----------|
|----------9-----------9-----|-----------------------------|
|------------10-7-9-10-------|-----------------------------|
|----------------------------|-----------------------------|


    (B5)                           (E5)
     |----3----|     |----3----|    |----3----|     |----3----|
     E    E    E     E    E    E    E    E    E     E    E    E
     |    |    |     |    |    |    |    |    |     |    |    |
     o    /    /     /    /    /    o    /    /     /    /    /

     T               T              T               T
     |-----6------|  |-----6-----|  |-----6------|  |-----6-----|
     S  S S  S S  S  S S  S S  S S  S  S S  S S  S  S S  S S  S S
||--14p11p7h11p7h11-14p7h11p7h11p7-15p12p7h12p7h12-15p7h12p7h12p7-|
||o---------------------------------------------------------------|
||----------------------------------------------------------------|
||----------------------------------------------------------------|
||o---------------------------------------------------------------|
||----------------------------------------------------------------|


  (D5)                                (G5)
   |-----3-----|     |-----3-----|     |-----3-----|     |-3-|
   E     E     E     E     E     E     E     E     E     E E E
   |     |     |     |     |     |     |     |     |     | | |
   o     /     /     /     /     /     o     /     /     / / /

   T                 T                 T                 T
   |------6-------|  |------6-------|  |------6-------|
   S  S  S  S  S  S  S  S  S  S  S  S  S  S  S  S  S  S  Q
|-17p14p10h14p10h14-17p14p10h14p10h14-20p15p10h15p10h15-19-----|
|--------------------------------------------------------------|
|--------------------------------------------------------------|
|--------------------------------------------------------------|
|--------------------------------------------------------------|
|--------------------------------------------------------------|


  (A5)         (F#5)       (G5)        (C5)
   |---3----|   |---3----|  |---3----|  |---3----|
   E     E  E   E     E  E  E     E  E  E     E  E
   |     |  |   |     |  |  |     |  |  |     |  |
   o     /  /   o     /  /  o     /  /  o     /  /

   |---3----|   |---3----|  |---3----|  |---3----|
   S  S  E  E   S  S  E  E  S  S  E  E  S  S  E  E
|-20p17----17\-17p14----14-19p15----15-15p12----12-|
|-------19-----------15----------17----------13----|
|--------------------------------------------------|
|--------------------------------------------------|
|--------------------------------------------------|
|--------------------------------------------------|


 1.
              (B5)        (E5)
   |---3----|  |--3--|     |-3-| |-3-|
   E     E  E  E  E  E     E E E E E E
   |     |  |  |  |  |     | | | | | |
   /     /  /  o  /  /     o / / / / /

                           ~~
   |---3----|  |--3--|
   S  S  E  E  E  E  E  a  H
|-15p12----12-14----11------------------||
|-------13-------12----12s17-----------o||
|---------------------------------------||
|---------------------------------------||
|--------------------------------------o||
|---------------------------------------||


  2.
              (B5)        (A5)
   |---3----|  |--3--|     |-3-| |-3-|
   E     E  E  E  E  E     E E E E E E
   |     |  |  |  |  |     | | | | | |
   /     /  /  o  /  /     o / / / / /

                           ~~
   |---3----|  |--3--|
   S  S  E  E  E  E  E  a  H
|-15p12----12-14----11-----------------||
|-------13-------12----12s17-----------||
|--------------------------------------||
|--------------------------------------||
|--------------------------------------||
|--------------------------------------||


                  (B5)                                          (E5)
    |-3--| |-3--|  |---3---|   |----3----|       |-3-|   |-3--|  |--3--|  |--3--|
    E E  E E  E E  E     E E   E  E      E       E E E   E  E E  E  E  E  E  E  E
    | |  | |  | |  |     | |   |  |      |       | | |   |  | |  |  |  |  |  |  |
    / /  / /  / /  o     / /   /  /      /       / / /   /  / /  o  /  /  /  /  /

                                                 ~~~~~~~~~~~
    |----3----|                                                  |--3--|  |--3--|
    Q    Q    Q    Q          +E     +S     S    Q      +Q       E  E  E  E  E  E
|---------------------------------------------|-------------------------------------|
|-/17---19---20---19b20======(19)r==(19)p==17-|-19-----(19)-----17-19-20-17-19-20---|
|---------------------------------------------|-------------------------------------|
|---------------------------------------------|-------------------------------------|
|---------------------------------------------|-------------------------------------|
|---------------------------------------------|-------------------------------------|


  (F#5)             (G5)
   |--3--|  |--3--|  |---3---|   |----3----|
   E  E  E  E  E  E  E     E E   E  E      E
   |  |  |  |  |  |  |     | |   |  |      |
   o  /  /  /  /  /  o     / /   /  /      /

   |--3--|  |--3--|
   E  E  E  E  E  E  Q          +E     +S     S
|-------17-------17-19b20======(19)r==(19)p==17-|
|-19-20----19-20--------------------------------|
|-----------------------------------------------|
|-----------------------------------------------|
|-----------------------------------------------|
|-----------------------------------------------|


               (C5)                                 (Bb5)
   |-3-| |-3-|  |---3----|  |-3--|    |-3--| |-3--|  |-3-|   |--3--|
   E E E E E E  E    E   E  E  E E    E E  E E  E E  E E E   E  E  E
   | | | | | |  |    |   |  |  | |    | |  | |  | |  | | |   |  |  |
   / / / / / /  o    /   /  /  / /    / /  / /  / /  o / /   /  /  /

   ~~                                                ~~~~~~~~~~~
                |------3-------|      |----3----|            |--3--|
   H            Q       +Q     Q      Q    Q    Q    Q      +Q     E
|-19-----------19b20r==(19)---17---|----------------------------------|
|----------------------------------|-20---19---17---19-----(19)---17--|
|----------------------------------|----------------------------------|
|----------------------------------|----------------------------------|
|----------------------------------|----------------------------------|
|----------------------------------|----------------------------------|


                    (B5)
   |--3--|  |--3--|  |---3---| |-3-|
   E  E  E  E  E  E  E     E E E E E
   |  |  |  |  |  |  |     | | | | |
   /  /  /  /  /  /  o     / / / / /

   |--3--|  |--3--|
   E  E  E  E  E  E  H
|-18p15-------15---------------------|
|-------17-------17-16b17============|
|----------18------------------------|
|------------------------------------|
|------------------------------------|
|------------------------------------|


                                                    C#5
                                                   2/4
    |-----3------|   |-3--|   |---3---|   |-3--|
    E   E        E   E  E E   E    E  E   E  E E     H
    |   |        |   |  | |   |    |  |   |  | |     |
    /   /        /   /  / /   /    /  /   /  / /     /

                                                    Gtrs III, IV
                              |---3---|   |-3--|
   +E      E        +Q       +E    E  E  +Q    E     H
|------------------------------------------------||-19b21=====|
|-(16)r---17b19====(17)-----(17)r-17-16-(16)-----||-----------|
|------------------------------------------------||-----------|
|------------------------------------------------||-----------|
|------------------------------------------------||-----------|
|------------------------------------------------||-----------|
                                                     W


  (F#5)
 4/4
    |--3---| |-3--|  |---3---| |---3----|
    E    E E E  E E  E     E E E E      E
    |    | | |  | |  |     | | | |      |
    o    / / /  / /  /     / / / /      /

  Gtr III
                     ~~~~~~~~~~~~~~~~~~~
   +Q        H.
|-(19)r-----------------------------------------|
|--17b19------------17pb19---------(17)---14-15-|
|-----------------------------------------------|
|-----------------------------------------------|
|-----------------------------------------------|
|-----------------------------------------------|
    H                Q.             +S     T  T


  (C#5)
   |-----3------|     |-----3------|     |-----3------|     |-----3------|
   E    E       E     E    E       E     E    E       E     E    E       E
   |    |       |     |    |       |     |    |       |     |    |       |
   o    /       /     /    /       /     /    /       /     /    /       /

   |-------5-------|  |-------5-------|  |-------5-------|  |------5-------|
   S  S    S  S    S  S  S    S  S    S  S  S    S  S    S  S  S    S  S   S
|-13-14---16-14S==13---------------------------------------------------------|
|--------------------12-14---15-14---12--------------------------------------|
|---------------------------------------10-11---13-11---10-------------------|
|----------------------------------------------------------11-12---12-11---9-|
|----------------------------------------------------------------------------|
|----------------------------------------------------------------------------|


  (F#5)
  |-3--| |---3----|        |-------3--------|       |-3-|
  E  E E E E      E        E      E         E       E E E
  |  | | | |      |        |      |         |       | | |
  o  / / / /      /        /      /         /       / / /

  Q.         T  T    T  T  T T  T   T  T  T    T  T Q
|----------------------------9-14p==9---------------------|
|-------------------------10----------10------------------|
|----------------------11----------------11---------------|
|-------------------11------------------------11----------|
|-9----------9h12--------------------------------12p9-----|
|---------------------------------------------------------|


  (C#5)
   |-----3------|     |----3----|      |----3----|     |--3---|
   E    E       E     E    E    E      E    E    E     E    E E
   |    |       |     |    |    |      |    |    |     |    | |
   o    /       /     /    /    /      /    /    /     /    / /

   |-------5-------|
   S  S    S  S    S  S  S    S    S   S  S    S    S  Q
|-13p10------10------16p13--------13/-19p16--------16-21b22-----|
|---------12------15---------15---------------18----------------|
|---------------------------------------------------------------|
|---------------------------------------------------------------|
|---------------------------------------------------------------|
|---------------------------------------------------------------|


  (F#5)             (Bb5)
   |--3--|  |--3--|  |-3-| |-3-|
   E  E  E  E  E  E  E E E E E E
   |  |  |  |  |  |  | | | | | |
   o  /  /  /  /  /  o / / / / /

                     ~~
   |--3--|  |--3--|
   E  E  E  E  E  E  H
|-21p17--------------------------|
|-------19----------17-----------|
|----------18----18--------------|
|-------------19-----------------|
|--------------------------------|
|--------------------------------|


  (B5)                  (D5)           (E5)              (Ab5)
   |--3---| |--3---|     |-3-| |-3-|    |--3--|  |--3--|  |-3-| |-3-|
   E    E E E E    E     E E E E E E    E  E  E  E  E  E  E E E E E E
   |    | | | |    |     | | | | | |    |  |  |  |  |  |  | | | | | |
   o    / / / /    /     o / / / / /    o  /  /  /  /  /  o / / / / /

                         ~~                               ~~
                                        |--3--|  |--3--|
   Q.            S    S  H              E  E  E  E  E  E  H
|------------------------------------|-19p16--------------------------|
|-15b17---------15p==14-15-----------|-------17----------15-----------|
|------------------------------------|----------16----16--------------|
|------------------------------------|-------------18-----------------|
|------------------------------------|--------------------------------|
|------------------------------------|--------------------------------|


  (A5)                  (C#5)                                (B5)
   |--3---| |--3---|     |-3--| |----3----|    |-3--| |-3--|  |--3---| |-3-|
   E    E E E E    E     E  E E E E       E    E E  E E  E E  E    E E E E E
   |    | | | |    |     |  | | | |       |    | |  | |  | |  |    | | | | |
   o    / / / /    /     o  / / / /       /    / /  / /  / /  o    / / / / /

                         ~~~
                                               |----3----|
   Q.            S    S  Q.          a  E      Q    Q    Q    H
|-------------------------------------------|-14---16---17---19b21-----------|
|-14b15---------14p==12-14----------12s14---|--------------------------------|
|-------------------------------------------|--------------------------------|
|-------------------------------------------|--------------------------------|
|-------------------------------------------|--------------------------------|
|-------------------------------------------|--------------------------------|


  (A5)                      (Bb5)
   |---3----|   |---3----|   |---3----|   |--3---|
   E     E  E   E     E  E   E     E  E   E    E E
   |     |  |   |     |  |   |     |  |   |    | |
   o     /  /   /     /  /   o     /  /   /    / /

   |---3----|   |---3----|   |---3----|
   S  S  E  E   S  S  E  E   S  S  E  E   Q
|-20p17----17\-17p14----14\-14p11----11-/21b23-----|
|-------19-----------16-----------13---------------|
|--------------------------------------------------|
|--------------------------------------------------|
|--------------------------------------------------|
|--------------------------------------------------|


  (C#5)
    |-3--|      |-----3------|  |------3------|   |----3-----|
    E  E E      E          E E  E  E          E   E        E E
    |  | |      |          | |  |  |          |   |        | |
    o  / /      /          / /  /  /          /   /        / /

                                |----3-----|
   +E.      S  +S   E.          E  S      +E.    +S   E         S
|-(21)-----21-(21)-21b23.5-----21-21b23==(21)r==(21)-21b24-----19--|
|------------------------------------------------------------------|
|------------------------------------------------------------------|
|------------------------------------------------------------------|
|------------------------------------------------------------------|
|------------------------------------------------------------------|


  (C#5)
   |------3------|     |-------3--------|     |--------3---------|     |------3------|
   E     E       E     E     E          E     E    E             E     E      E      E
   |     |       |     |     |          |     |    |             |     |      |      |
   o     /       /     /     /          /     o    o             o     o      o      o

   |--3--|             |---3----|             |----------5----------|  |-------6--------|
   S  S  S  T  T    S  S  S  T  T  T  T    S  S  S    T  T  a  S    S  S.  T  T  S.  S  S
|-21-19-17-21p19p==17----17-21p19p17-17------17-19---21-19-19s17---16-19--17-16-17--16-14--|
|---------------------21------------------21-----------------------------------------------|
|------------------------------------------------------------------------------------------|
|------------------------------------------------------------------------------------------|
|------------------------------------------------------------------------------------------|
|------------------------------------------------------------------------------------------|


  (C#5)
   |---5----|  |------6-------|  |-----5-----|
   E  S  S  S  S  S  S  S  S  S  S  S  S  S  S  S  S  S  S
|-------10-13-10----10h13p10-------13-16-14-------------13-|
|-15-12----------12----------12-15----------12-15-12-15----|
|----------------------------------------------------------|
|----------------------------------------------------------|
|----------------------------------------------------------|
|----------------------------------------------------------|


  (C#5)
                  |--3--|        |--------6--------|           |--3---|  |--3--|
   S  S  S  S  a  S  S  S  S  S  S  S  S  S  S  T  T  +T   T  +T   T  T  S  S  S
|-16-14-17-16-14s13----13---------------------------------------------------------|
|-------------------15----15-14-12----15-14-12----14-(14)-12-(12)----15-----------|
|----------------------------------14----------14-----------------14----14-13-11h=|
|---------------------------------------------------------------------------------|
|---------------------------------------------------------------------------------|
|---------------------------------------------------------------------------------|


  (C#5)
   |--3--|  |--3--|  |-----5-----|  |-----3-----|            |----------6----------|
   S  S  S  S  S  S  S  S  S  S  S  S       S.  T  S  T  T  +S   S  S  +T   T  S.  T
|------------------------------------------------------------------------------------|
|----------------10----10-12----10-12b12.5-----10-12-14-10-(10)-12---------10-12--14-|
|-13p11s10-11-13----13-------13------------13----------------------13-(13)-----------|
|------------------------------------------------------------------------------------|
|------------------------------------------------------------------------------------|
|------------------------------------------------------------------------------------|


  (C#5)
    |-3-|  |--3--|     |-----5-----|  |--3--|  |--3--|
   +T   S  S  S  S  S  S  S  S  S  S  S  S  S  S  S  S  Q
|---------------------------------------------13-16-13S19b21===|
|-(14)-10-14-12S14S15-18-15----15-18-15----15------------------|
|---------------------------16----------16---------------------|
|--------------------------------------------------------------|
|--------------------------------------------------------------|
|--------------------------------------------------------------|


    |---3---|  |------3------|
   +E    E  E  Q      Q      Q       +Q
|-(19)r-19-17-----------------------------|
|-------------19pb21r19pb21r19pb21==(19)--|
|-----------------------------------------|
|-----------------------------------------|
|-----------------------------------------|
|-----------------------------------------|


  N.C.
  Gtr IV
   +H             +Q       +Q
|----------------------------------||
|-(19)-----------(19)r====(19)-----||
|----------------------------------||
|----------------------------------||
|----------------------------------||
|----------------------------------||
|
| Gtr II
|   |-3--| |-3-|   |-3--|   |-3--|
|   E  E E E E E   E  E E   E  E E
|----------------------------------||
|----------------------------------||
|----------------------------------||
|----------------------------------||
|---4--5-4-2-4-2---0--2-0----------||
|---------------------------4--5-4-||


  (F#5)                   (C#5)
  Gtrs III, IV
  S S   S   S S S   S   S S S   S   S S S   S   T T
|-5p2-------2-5p2-------2-4p1-------1-4p1-------1-4-|
|-------2-----------2-----------2-----------2-------|
|---------------------------------------------------|
|---------------------------------------------------|
|---------------------------------------------------|
|---------------------------------------------------|
|
| PM------------------------------------------|
| |---3---|   |---3---|   |---3---|   |---3---|
| E   E   E   E   E   E   E   E   E   E   E   E
|---------------------------------------------------|
|---------------------------------------------------|
|---------------------------------------------------|
|---------------------------------------------------|
|-------------------------4---4---4---4---4---4-----|
|-2---2---2---2---2---2-----------------------------|


  (F5)                    (F#5)
  Gtr II
  |---3---|   |---3---|   |---3---|   |---3---|
  E   E   E   E   E   E   E   E   E   E   E   E
  |   |   |   |   |   |   |   |   |   |   |   |
  o   /   /   /   /   /   o   /   /   /   /   /

  S S   S   S S S   S   S S S   S   S S S   S   S
|-7p4-------4-7p4-------4-9p5-------5-5p2-------2-|
|-------6-----------6-----------5-----------2-----|
|-------------------------------------------------|
|-------------------------------------------------|
|-------------------------------------------------|
|-------------------------------------------------|


  (A5)                     (E5)
  |---3---|   |---3---|    |---3---|   |---3---|
  E   E   E   E   E   E    E   E   E   E   E   E
  |   |   |   |   |   |    |   |   |   |   |   |
  o   /   /   /   /   /    o   /   /   /   /   /

  S S   S   S S S   S   S  S S   S   S S S   S   S
|-9p5-------5-9p5-------5/-7p4-------4-7p4-------4/-|
|-------7-----------7------------5-----------5------|
|---------------------------------------------------|
|---------------------------------------------------|
|---------------------------------------------------|
|---------------------------------------------------|


  (G#5)                     (A5)
   |---3---|    |---3---|   |---3---|   |---3---|
   E   E   E    E   E   E   E   E   E   E   E   E
   |   |   |    |   |   |   |   |   |   |   |   |
   o   /   /    /   /   /   o   /   /   /   /   /

   S S   S   S  S S   S   S S S   S   S S S   S   S
|-10p7-------7-10p7-------7-9p5-------5-9p5-------5/-|
|--------9------------9-----------7-----------7------|
|----------------------------------------------------|
|----------------------------------------------------|
|----------------------------------------------------|
|----------------------------------------------------|


  (C#5)                       (D5)
   |---3----|    |---3----|    |----3----|     |----3----|
   E   E    E    E   E    E    E    E    E     E    E    E
   |   |    |    |   |    |    |    |    |     |    |    |
   o   /    /    /   /    /    o    /    /     /    /    /

   S S    S   S  S S    S   S  S  S    S    S  S  S    S    S
|-12p9--------9-12p9--------9-14p10--------10-14p10--------10-|
|--------10------------10-------------10--------------10------|
|-------------------------------------------------------------|
|-------------------------------------------------------------|
|-------------------------------------------------------------|
|-------------------------------------------------------------|


  (Eb5)                           (E5)
   |----3----|     |----3----|     |----3----|     |----3----|
   E    E    E     E    E    E     E    E    E     E    E    E
   |    |    |     |    |    |     |    |    |     |    |    |
   o    /    /     /    /    /     o    /    /     /    /    /

   S  S    S    S  S  S    S    S  S  S    S    S  S  S    S    S
|-14p11--------11-14p11--------11-16p12--------12-16p12--------12-|
|---------12--------------12--------------12--------------12------|
|-----------------------------------------------------------------|
|-----------------------------------------------------------------|
|-----------------------------------------------------------------|
|-----------------------------------------------------------------|


  (F5)                            (F#5)    (D5)
   |----3----|     |----3----|     |--3--|  |--3--|
   E    E    E     E    E    E     E  E  E  E  E  E
   |    |    |     |    |    |     |  |  |  |  |  |
   o    /    /     /    /    /     o  /  /  o  /  /

                                   |--3--|  |--3--|
   S  S    S    S  S  S    S    S  E  E  E  E  E  E
|-16p13--------16-16p13--------13-17p14-------14p10-|
|---------14--------------14------------14-10-------|
|---------------------------------------------------|
|---------------------------------------------------|
|---------------------------------------------------|
|---------------------------------------------------|


  (C#5)   (B5)    (C#5)
 2/4             4/4
   |-3--| |-3-|   |---3---| |-3-| |-3-|  |---3----|
   E E  E E E E   E     E E E E E E E E  E  E     E
   | |  | | | |   |     | | | | | | | |  |  |     |
   o /  / o / /   o     / / / / / / / /  /  /     /

                  Gtr IV
   |-3--| |-3-|
   E E  E E E E   H.                    +E    +E
|------10p7-----|-----------------------------------|
|-10-7------7---|-----------------------------------|
|-------------7-|-----------------------------------|
|---------------|-9b11==================(9)r==(9)---|
|---------------|-----------------------------------|
|---------------|-----------------------------------|


   |-----3------|     |----3-----|   |------3-------|        |-----3-----|
   E    E       E     E     E    E   E      E       E        E     E     E
   |    |       |     |     |    |   |      |       |        |     |     |
   /    /       /     /     /    /   /      /       /        /     /     /

  Gtr III
                                     |---------7----------|  |-------6-------|
   S  S   T  T     S  S   S    S   S S S  S    S  S    S  S  S  S  S  S  S   S
|-10p=7-----(7)---13p10-------10p==7---7-13p==10------10-16p13----10-13p10------|
|---------9--------------12----------9-----------12------------15----------/15--|
|-------------------------------------------------------------------------------|
|-(9)---------------------------------------------------------------------------|
|-------------------------------------------------------------------------------|
|-------------------------------------------------------------------------------|
  +Q                  H.


  (C#5)
   |-----3------|     |--3---| |-3-|  |--3--|
   E    E       E     E    E E E E E  E  E  E
   |    |       |     |    | | | | |  |  |  |
   o    /       /     /    / / / / /  /  /  /

   |-------5-------|                  |--3--|
   S  S    S  S    S  H               E  E  E
|-13-16p==13------13S19b21-----------19p17-------|
|------------15----------------------------19b21r|
|------------------------------------------------|
|------------------------------------------------|
|------------------------------------------------|
|------------------------------------------------|


                                                  (B5)       (D5)
    |-----3------|   |-----3------|        |-3--|   |-3--|   |---3---|     |--3--|
    E  E         E   E    E       E        E  E E   E  E E   E     E E Q   E   E E Q
    |  |         |   |    |       |        |  | |   |  | |   |     | | |   |   | | |
    /  /         /   /    /       /        /  / /   o  / /   o     / / /   /   / / /

                     |-----3------|                                        |----3-----|
   +E     +E        +E   +E      +E       +Q       +Q        H             Q     Q    Q
|----------------------------------------------------------|------------------------------|
|-(19)---(19)b21r==(19)-(19)b21r(19)b21==(19)r====(19)-----|-7-------------7-----9---10---|
|----------------------------------------------------------|-9b11=========(9)r------------|
|----------------------------------------------------------|------------------------------|
|----------------------------------------------------------|------------------------------|
|----------------------------------------------------------|------------------------------|


  (Eb5)
  |------3------|       |--3--|
  E    E        E  Q    E   E E Q
  |    |        |  |    |   | | |
  o    /        /  /    /   / / /

                        |----3-----|
  E      E        +Q    Q     Q    Q
|------------------------------------|
|-7------7--------(7)---7-----9---10-|
|-9b11---9pb11====(9)--(9)r----------|
|------------------------------------|
|------------------------------------|
|------------------------------------|


  (E5)                         (B5)
  |-3--| |-3-|  |-3-| |-3--|    |---3---| |-3-|   |-3--|   |-3--|
  E  E E E E E  E E E E E  E    E     E E E E E   E  E E   E  E E
  |  | | | | |  | | | | |  |    |     | | | | |   |  | |   |  | |
  o  / / / / /  / / / / /  /    o     / / / / /   /  / /   /  / /

                        PM|
  |-3--| |-3-|  |-3-| |-3--|
  E  E E E E E  E E E E E  E    H                +Q       +Q
|------------7-12p7----------|-------------------------------------|
|----------8--------8--------|-10b12============(10)r====(10)------|
|--------9------------9------|-------------------------------------|
|------9----------------9----|-------------------------------------|
|-7h10--------------------10-|-------------------------------------|
|----------------------------|-------------------------------------|


  (E5)
                  |--3--|                 |--3--|
   S  S  S  T  T  S  S  S  S  S  a  T  S  S  S  S  T  +T   T  T  S  T  T  T
|-15-12-11-12h14-15-12-15-12-11-12h14-15-12-17-12-15-(15)-14-12-11-12h14h15-|
|---------------------------------------------------------------------------|
|---------------------------------------------------------------------------|
|---------------------------------------------------------------------------|
|---------------------------------------------------------------------------|
|---------------------------------------------------------------------------|


   |--3--|  |--3--|                    |------5-------|
   S  S  S  S  S  S  T  S  T  S  T  T  S  S  T  T  S  S  T  T  S  T  T  S
|-12-17-12-15-12-11s12h14h15p14-14h15S17p14-15h17-19-15-17-19-20-19-17-15-|
|-------------------------------------------------------------------------|
|-------------------------------------------------------------------------|
|-------------------------------------------------------------------------|
|-------------------------------------------------------------------------|
|-------------------------------------------------------------------------|


  (C5)
   |--3--|  |--3--|        |--3--|
   S  S  S  S  S  S  T  T  S  S  S  T  T  +T   T  T  T  S  S  T  T  T  S  T  T T
|-19-17p15S14h17-15-14-12-15-14-12-10-14-(14)-12-10----12-10-------10------------|
|---------------------------------------------------13-------13-12----13-12-10-8-|
|--------------------------------------------------------------------------------|
|--------------------------------------------------------------------------------|
|--------------------------------------------------------------------------------|
|--------------------------------------------------------------------------------|


   |-3--|  |-3--|     |-3--|  |-3--|       |-3--| |-3-|
   S  S S  S  S S  a  S  S S  S S  S T  S. S  S S S S S    +E
|--------------------------------------------------------------|
|-12-10-8-12-10-8----------------------------------------------|
|-----------------11h12-11-9-11-9----9-------------------------|
|---------------------------------12---12--9-10-9-7------------|
|---------------------------------------------------9-7b9==(7)-|
|--------------------------------------------------------------|


  (E5)
          ~~
  Q  +Q   E. T T T T S  E
|--------------------7-12--|
|------------------8-------|
|----------------9---------|
|--------------9-----------|
|-7--(7)r=7--7-------------|
|--------------------------|


                              (C5)
                   ~~
        |---5----|             |--3--|  |--3--|
   Q  a S S  S S S Q.    E     q  q  q  Q  Q  Q
|-11--7h8p7-----------------|----------17-19-20-|
|-----------10p8p7------12/-|-17-19-20----------|
|------------------9--------|-------------------|
|---------------------------|-------------------|
|---------------------------|-------------------|
|---------------------------|-------------------|


                D.S. al Coda
                          ~~
            |----3----|
   Q       +E   +E   +E   H
|-22b24===(22)-(22)r(22)-22----||
|------------------------------||
|------------------------------||
|------------------------------||
|------------------------------||
|------------------------------||


 Outro
  &
  (E5)
  Gtr III
  \6.5
                              ~~~~~~~
                 |---3---|
  W              E   E   E  S E. +H
|-------------|-------------------------|
|-------------|-------------1s5--(5)----|
|-------------|-------------------------|
|-------------|-------------------------|
|-------------|-----(0)-(0)-------------|
|-0-----------|-(0)-----(0)-------------|


  (C5)
                                                            PM           ~~~
  |----5----| |---5---| |----6----| |---3---|             |-3-|
  S S S S T T S S S S S S S S S S S E S S S S   S T T S S E E E    +Q   +Q
|-----------5-----------------5---------------|------------------------------|
|-5-7-8-7-5---8-7-5S4-5-7-8-7---8-7-5-7-8-7-5-|------------------------------|
|---------------------------------------------|-7s5h7p5s4---5-5b7==(5)r=(5)--|
|---------------------------------------------|-----------7------------------|
|---------------------------------------------|------------------------------|
|---------------------------------------------|------------------------------|


  (E5)
                      \1.5___________/
                   PM
                |--3--|                                   |-3--|
  E.   S  S S E E  E  E       Q     +Q    Q       +Q     +Q    E
|---------------------------------|----------------------------------|
|---------3-1-0-------------^-0---|-(0)--<7>b8===(<7>)r=(<7>)-13b15==|
|-2b4-(0)-------x-(0)-0-----^(0)--|-(0)------------------------------|
|---------------------------------|----------------------------------|
|---------------------------------|----------------------------------|
|---------------------------------|----------------------------------|


  (C5)
          ~~~~~
          |----3-----|  |---3----|          |--3--|
   +Q    +E    E  S  S  S  S  E  E  +S   S  S  S  S
|---------------------------------------------------|
|-(13)--(13)r-13-15-13-15-13-12-13-(13)-12-13-12-10-|
|---------------------------------------------------|
|---------------------------------------------------|
|---------------------------------------------------|
|---------------------------------------------------|


   |----5----| |-3-|
   S  S S  S S S S S  S   S  +S  E S     +Q
|--------------------[7]----------------------|
|-12-10-8-10-8-7-8-------10-(10)-8-8b10==(8)--|
|------------------9--------------------------|
|---------------------------------------------|
|---------------------------------------------|
|---------------------------------------------|


  (E5)
                       ~~~                             ~~~~~~~
   |--3---| |-3-|                    |--3---| |-3--|
  +E  +E  E S S S +E  +Q   Q        +E  +E  E S S  S  +E  +E.  a   S  E  e
|---------------------------------|-------------------------------------14-|
|-(8)r(8)p7h8p7------------8b10===|=(8)r(8)p7h8p7--------------------17----|
|---------------9-(9)-(9)---------|---------------[9]-(9)-(9)-(9)s16-------|
|---------------------------------|----------------------------------------|
|---------------------------------|----------------------------------------|
|---------------------------------|----------------------------------------|


  (C5)
                        ~~~~~~~
           |--3---|
   Q      +S   S  S  S  S  +Q    E  E
|-14b15r=(14)h15p14-12-14-(14)--12-14-|
|-------------------------------------|
|-------------------------------------|
|-------------------------------------|
|-------------------------------------|
|-------------------------------------|


      |--3--|                          |------6-------|
   E  S  S  S  S  S  S  S  S  S  S  S  S  S  S  S  S  S
|-15p14h15p14p12-15p14p12----15p12-10-12-14p12p10-15p12-|
|-------------------------15----------------------------|
|-------------------------------------------------------|
|-------------------------------------------------------|
|-------------------------------------------------------|
|-------------------------------------------------------|


  (E5)
   |-----5-----|
   S  S  S  S  S  a      +E   e  E.    S  S  S  S  S
|-10h12h14p12p10-12pb14r(12)-12-------12-12-12-14-14-|
|-------------------------------15b17----------------|
|----------------------------------------------------|
|----------------------------------------------------|
|----------------------------------------------------|
|----------------------------------------------------|


   |-----5-----|       |------3------|
   S  S  S  S  S      +E    S  S  S  S  S  S  S  S      +Q
|-15-14-15-15-15b17==(15)r-15h17p15s14h15p14-14--------------|
|-----------------------------------------------17b19==(17)--|
|------------------------------------------------------------|
|------------------------------------------------------------|
|------------------------------------------------------------|
|------------------------------------------------------------|


  (C5)
               ~~~~~~~~                         ~~~~
                                   |--3--|
   +Q    +Q    Q   +S   S  S  S    Q  Q  Q     +Q    +E   E
|-------------------------------|----------------------------||
|-(17)r=(17)--17--(17)-15h17p15-|-13-12-13b15r(13)--(13)s(0)-||
|-------------------------------|----------------------------||
|-------------------------------|----------------------------||
|-------------------------------|----------------------------||
|-------------------------------|----------------------------||


  E5
  Gtrs I, II
  E   E   Q         Q         Q
  |
  /

  Gtr III
  PM----------|
          |-3-| |3| |---5---| |---5---|
  S S S S S S S E S S S S S S S S S S S
|---------------------------------------|
|---------------------------------------|
|-----------------------------------5s7-|
|-------------------------------4-------|
|---------------2-3-5p2-5-7p5-7---7-----|
|-3-0-2-3-5-3-5-------------------------|


  E     E      Q         Q            Q
  |
  /

  |----5-----| |---5---| |----5----|  |-----5-----|
  S S S   S  S S S S S S S  S S  S S  S  S  S  S  S
|---------------------------------------------------|
|------------------7---7-8----8h10-8h10-12p10-12h13-|
|-----6---7-/9s7-9---8-----10-----------------------|
|-5-7-----------------------------------------------|
|---------------------------------------------------|
|---------------------------------------------------|


  E5
   E       E        Q               Q              Q
   |
   /

   |------5------|  |-----5------|  |-----5-----|  |--3--|
   S  S  S    S  S  S  S  S   S  S  S  S  S  S  S  S  S  S  T  T  S
|------------12----12-14--------15-------17-------19----19h20p17-19-|
|-15-13-15------13-------15-/19----17S20----19S22----20-------------|
|-------------------------------------------------------------------|
|-------------------------------------------------------------------|
|-------------------------------------------------------------------|
|-------------------------------------------------------------------|


   H                                 Q     E    E
                                                |
                                                /

                             ~~~~~~~~~~~~~~~~~
   S  S  T  T  T  T  S   S   E      +Q    +E   +E
|-20-17-19h20h22p20p19-(22)-22b24==(22)--(22)-(22)r\-|
|----------------------------------------------------|
|----------------------------------------------------|
|----------------------------------------------------|
|----------------------------------------------------|
|----------------------------------------------------|


 Free Time
  E5
  W          +W           +W           +W
  |           |            |            |
  /           /            /            /

  W          +W           +W           +W
|----------:------------:------------:--------:
|----------:------------:------------:--------:
|----------:------------:------------:--------:
|-9--------:-(9)--------:-(9)--------:-(9)----:
|-7--------:-(7)--------:-(7)--------:-(7)----:
|-0--------:-(0)--------:-(0)--------:-(0)----:


  (E5)                                                   E5
  +W            +W            +W            +W           W
   |             |             |             |
   /             /             /             /

                 <
  +W             W            +W            +W           Q  +E   E H
|------------:-------------:-------------:-------------:----------------*|
|------------:-------------:-------------:-------------:----------------*|
|------------:-(12)--------:-(12)--------:-(12)--------:-9--(9)\--------*|
|-(9)--------:--(9)--------:--(9)--------:--(9)--------:-9--(9)\--------*|
|-(7)--------:--(7)--------:--(7)--------:--(7)--------:-7--(7)\--------*|
|-(0)--------:--(0)--------:--(0)--------:--(0)--------:----------------*|



Duration Legend
---------------
W - whole; H - half; Q - quarter; E - 8th; S - 16th; T - 32nd; X - 64th; a - acciaccatura
+ - note tied to previous; . - note dotted; .. - note double dotted
Uncapitalized letters represent notes that are staccato (1/2 duration)
Irregular groupings are notated above the duration line
Duration letters will always appear directly above the note/fret number it represents the
duration for.  Duration letters with no fret number below them represent rests.  Multi-
bar rests are notated in the form Wxn, where n is the number of bars to rest for.  Low
melody durations appear below the staff

Tablature Legend
----------------
 h   - hammer-on
 p   - pull-off
 b   - bend
 pb  - pre-bend
 r   - bend release (if no number after the r, then release immediately)
 /\  - slide into or out of (from/to "nowhere")
 s   - legato slide
 S   - shift slide
<n> - natural harmonic
[n]  - artificial harmonic
n(n) - tapped harmonic
 ~   - vibrato
 tr  - trill
 T   - tap
 TP  - trem. picking
 PM  - palm muting
\n/  - tremolo bar dip; n = amount to dip
 \n  - tremolo bar down
 n/  - tremolo bar up
/n\  - tremolo bar inverted dip
 =   - hold bend; also acts as connecting device for hammers/pulls
 <> - volume swell (louder/softer)
 x   - on rhythm slash represents muted slash
 o   - on rhythm slash represents single note slash

Misc Legend
-----------
 |  - bar
||  - double bar
||o - repeat start
o|| - repeat end
*|  - double bar (ending)
 :  - bar (freetime)
 $  - Segno
 &  - Coda
Tempo markers - <E/E./Q/Q./H/H.> = BPM(8/16=s8/s16), where s8 = swing 8ths, s16 = swing 16ths

comments
We did not receive enough feedback on this tab! Please rate:
print report bad tab
1 2 3 4 5
I want to post or [tab]
guest
You may want to rate the tab now too:
select rating
Please do not post tabs as comments. Select "correction" instead!