Oops, an error
Loading. Please wait.

La Leyenda Del Hada Y El Mago Tab

ver3
ver3
More versions @911Tabs.com
3,095 views 1 this week
no commentswrite comment
1 2 3 4 5
please rate
Autoscroll
+/-
esc
set tempo
stop
Difficulty
advanced
Hey! There's an official Ultimate Guitar app which is ideal
for learning songs when you're away from computer. Get the app
WARNING: You are trying to view
                                    content from Ultimate-Guitar.com
                                    in an unauthorized application,
                                    which is prohibited.

                                    Please use an official Ultimate
                                    Guitar Tabs application for iPhone,
                                    iPad or Android to access legitimate
                                    chords, guitar, bass, and drum tabs
                                    from Ultimate-Guitar.com database.

                                    Type "ultimate guitar tabs" in Apple
                                    App Store's or Android Market's
                                    search to find the application.
                                                                                         Rata Blanca
Gtr 1
NO CREAN QUE GIARDINO ES VIRTUOSO!!



                         |--3--|  |--3--|  |--3--|  |--3--|   
     W                   E  E  E  E  E  E  E  E  E  E  E  E   
E||-------------------|--------------------------------------|
B||-------------------|--------------------------------------|
G||-------------------|--------------------------------------|
D||-------------------|--------------------------------------|
A||-------------------|--------------------------------------|
E||-------------------|--3--0--0--0--0--0--3--0--0--0--0--0--|


  |--3--|  |--3--|  |--3--|  |--3--|     |--3--|  |--3--|  |--3--|  |--3--|   
  E  E  E  E  E  E  E  E  E  E  E  E     E  E  E  E  E  E  E  E  E  E  E  E   
--------------------------------------|--------------------------------------|
--------------------------------------|--------------------------------------|
--------------------------------------|--------------------------------------|
--------------------------------------|--------------------------------------|
--------------------------------------|--------------------------------------|
--3--2--0--5--3--2--3--0--0--0--0--0--|--3--0--0--0--0--0--3--0--0--0--0--0--|


  |--3--|  |--3--|  |--3--|  |--3--|     |--3--|  |--3--|  |--3--|  |--3--|   
  E  E  E  E  E  E  E  E  E  E  E  E     E  E  E  E  E  E  E  E  E  E  E  E   
--------------------------------------|--------------------------------------|
--------------------------------------|--------------------------------------|
--------------------------------------|--------------------------------------|
--------------------------------------|--------------------------------------|
--------------------------------------|--------------------------------------|
--3--2--0--5--3--2--3--0--0--0--0--0--|--3--0--0--0--0--0--3--0--0--0--0--0--|


  |--3--|  |--3--|  |--3--|  |--3--|     |--3--|  |--3--|  |--3--|  |--3--|   
  E  E  E  E  E  E  E  E  E  E  E  E     E  E  E  E  E  E  E  E  E  E  E  E   
--------------------------------------|--------------------------------------|
--------------------------------------|--------------------------------------|
--------------------------------------|--------------------------------------|
--------------------------------------|--------------------------------------|
--------------------------------------|--------------------------------------|
--3--2--0--5--3--2--3--0--0--0--0--0--|--3--2--0--5--3--2--3--0--0--0--0--0--|


                                         0:14                                   
  |--3--|  |--3--|  |--3--|  |--3--|     |---3---|  |--3--|  |--3--|  |--3--|   
  E  E  E  E  E  E  E  E  E  E  E  E     E    E  E  E  E  E  E  E  E  E  E  E   
--------------------------------------|----------------------------------------|
--------------------------------------|----------------------------------------|
--------------------------------------|----------------------------------------|
--------------------------------------|----------------------------------------|
-----------2--3--5--5--3--2-----------|----------------------------------------|
--2--3--5--------------------5--3--2--|--0----0--0--0--0--0--0--0--0--0--0--0--|


  |--3--|  |--3--|  |--3--|  |--3--|     |--3--|  |--3--|  |--3--|  |--3--|   
  E  E  E  E  E  E  E  E  E  E  E  E     E  E  E  E  E  E  E  E  E  E  E  E   
--------------------------------------|--------------------------------------|
--------------------------------------|--------------------------------------|
--------------------------------------|--------------------------------------|
--------------------------------------|--------------------------------------|
--5--5--5--5--5--5--5--5--5--5--5--5--|--------------------------------------|
--------------------------------------|--0--0--0--0--0--0--0--0--0--0--0--0--|


  |--3--|  |--3--|  |--3--|  |--3--|     |--3--|  |--3--|  |--3--|  |--3--|   
  E  E  E  E  E  E  E  E  E  E  E  E     E  E  E  E  E  E  E  E  E  E  E  E   
--------------------------------------|--------------------------------------|
--------------------------------------|--------------------------------------|
--------------------------------------|--------------------------------------|
--------------------------------------|--------------------------------------|
--2--2--2--2--2--2--2--2--2--0--0--0--|--------------------------------------|
--------------------------------------|--3--3--3--3--3--3--3--3--3--3--3--3--|


  |--3--|  |--3--|  |--3--|  |--3--|     |--3--|  |--3--|  |--3--|  |--3--|   
  E  E  E  E  E  E  E  E  E  E  E  E     E  E  E  E  E  E  E  E  E  E  E  E   
--------------------------------------|--------------------------------------|
--------------------------------------|--------------------------------------|
--------------------------------------|--------------------------------------|
--------------------------------------|--------------------------------------|
--5--5--5--5--5--5--5--5--5--5--5--5--|--3--3--3--3--3--3--2--2--2--2--2--2--|
--------------------------------------|--------------------------------------|


  |--3--|  |--3--|                  |--3--|  |--3--|  |--3--|  |--3--|   
  E  E  E  E  E  E   Q     Q        E  E  E  E  E  E  E  E  E  E  E  E   
---------------------------------|--------------------------------------|
---------------------------------|--------------------------------------|
--------------------12----11~----|--------------------------------------|
--------------------10-----9~----|--------------------------------------|
---------------------------------|--------------------------------------|
--0--0--0--0--0--0---------------|--0--0--0--0--0--0--0--0--0--0--0--0--|


  |--3--|  |--3--|  |--3--|  |--3--|     |--3--|  |--3--|  |--3--|  |--3--|   
  E  E  E  E  E  E  E  E  E  E  E  E     E  E  E  E  E  E  E  E  E  E  E  E   
--------------------------------------|--------------------------------------|
--------------------------------------|--------------------------------------|
--------------------------------------|--------------------------------------|
--------------------------------------|--------------------------------------|
--5--5--5--5--5--5--5--5--5--5--5--5--|--------------------------------------|
--------------------------------------|--0--0--0--0--0--0--0--0--0--0--0--0--|


  |--3--|  |--3--|  |--3--|  |--3--|     |--3--|  |--3--|  |--3--|  |--3--|   
  E  E  E  E  E  E  E  E  E  E  E  E     E  E  E  E  E  E  E  E  E  E  E  E   
--------------------------------------|--------------------------------------|
--------------------------------------|--------------------------------------|
--------------------------------------|--------------------------------------|
--------------------------------------|--------------------------------------|
--2--2--2--2--2--2--2--2--2--0--0--0--|--------------------------------------|
--------------------------------------|--3--3--3--3--3--3--3--3--3--3--3--3--|


  |--3--|  |--3--|  |--3--|  |--3--|     |--3--|  |--3--|  |--3--|  |--3--|   
  E  E  E  E  E  E  E  E  E  E  E  E     E  E  E  E  E  E  E  E  E  E  E  E   
--------------------------------------|--------------------------------------|
--------------------------------------|--------------------------------------|
--------------------------------------|--------------------------------------|
--------------------------------------|--------------------------------------|
--5--5--5--5--5--5--5--5--5--5--5--5--|--3--3--3--3--3--3--2--2--2--2--2--2--|
--------------------------------------|--------------------------------------|


                                         0:40                                                       
  |--3--|  |--3--|  |--3--|  |--3--|                                                                
  E  E  E  E  E  E  E  E  E  E  E  E     W                   W                   H        H         
--------------------------------------|-------------------|-------------------|--------------------|
--------------------------------------|-------------------|-------------------|--------------------|
--------------------------------------|-------------------|-------------------|--------------------|
--------------------------------------|--5----------------|--9----------------|--7-----------------|
--------------------------------------|--3----------------|--7----------------|--5--------4--------|
--0--0--0--0--0--0--0--0--0--0--0--0--|-------------------|-------------------|-----------2--------|


  H        H           W                   W                   W                 
--------------------|-------------------|-------------------|-------------------|
--------------------|-------------------|-------------------|-------------------|
--------------------|-------------------|-------------------|-------------------|
--------------------|-------------------|-------------------|--4----------------|
--5--------6--------|--7----------------|--8----------------|--2----------------|
--3--------4--------|--5----------------|--6----------------|-------------------|


  W                   H        H           W                   H        H         
-------------------|--------------------|-------------------|--------------------|
-------------------|--------------------|-------------------|--------------------|
-------------------|--------------------|-------------------|--------------------|
--8----------------|--9--------7--------|--5----------------|--7--------5--------|
--6----------------|--7--------5--------|--3----------------|--5--------3--------|
-------------------|--------------------|-------------------|--------------------|


                                                               |--3--|  |--3--|  |--3--|  |--3--|   
  W                   H        H           W                   E  E  E  E  E  E  E  E  E  E  E  E   
-------------------|--------------------|-------------------|--------------------------------------|
-------------------|--------------------|-------------------|--------------------------------------|
-------------------|--------------------|-------------------|--------------------------------------|
--4----------------|--5--------4--------|--3----------------|--------------------------------------|
--2----------------|--3--------2--------|--1----------------|--3--3--3--2--2--2--3--3--3--2--2--2--|
-------------------|--------------------|-------------------|--------------------------------------|


  |--3--|  |--3--|  |--3--|  |--3--|     |--3--|  |--3--|  |--3--|  |--3--|   
  E  E  E  E  E  E  E  E  E  E  E  E     E  E  E  E  E  E  E  E  E  E  E  E   
--------------------------------------|--------------------------------------|
--------------------------------------|--------------------------------------|
--------------------5--5--5--4--4--4--|--------------------------------------|
--5--5--5--4--4--4--------------------|--------------------------------------|
--------------------------------------|--------------------------------------|
--------------------------------------|--3--0--0--0--0--0--3--0--0--0--0--0--|


  |--3--|  |--3--|  |--3--|  |--3--|     |--3--|  |--3--|  |--3--|  |--3--|   
  E  E  E  E  E  E  E  E  E  E  E  E     E  E  E  E  E  E  E  E  E  E  E  E   
--------------------------------------|--------------------------------------|
--------------------------------------|--------------------------------------|
--------------------------------------|--------------------------------------|
--------------------------------------|--------------------------------------|
--------------------------------------|--------------------------------------|
--3--2--0--5--3--2--3--0--0--0--0--0--|--3--0--0--0--0--0--3--0--0--0--0--0--|


  |--3--|  |--3--|  |--3--|  |--3--|     |--3--|  |--3--|  |--3--|  |--3--|   
  E  E  E  E  E  E  E  E  E  E  E  E     E  E  E  E  E  E  E  E  E  E  E  E   
--------------------------------------|--------------------------------------|
--------------------------------------|--------------------------------------|
--------------------------------------|--------------------------------------|
--------------------------------------|--------------------------------------|
--------------------------------------|--------------------------------------|
--3--2--0--5--3--2--3--0--0--0--0--0--|--3--0--0--0--0--0--3--0--0--0--0--0--|


  |--3--|  |--3--|  |--3--|  |--3--|     |--3--|  |--3--|  |--3--|  |--3--|   
  E  E  E  E  E  E  E  E  E  E  E  E     E  E  E  E  E  E  E  E  E  E  E  E   
--------------------------------------|--------------------------------------|
--------------------------------------|--------------------------------------|
--------------------------------------|--------------------------------------|
--------------------------------------|--------------------------------------|
--------------------------------------|--------------------------------------|
--3--2--0--5--3--2--3--0--0--0--0--0--|--3--0--0--0--0--0--3--0--0--0--0--0--|


                                         1:17                                   
  |--3--|  |--3--|  |--3--|  |--3--|     |---3---|  |--3--|  |--3--|  |--3--|   
  E  E  E  E  E  E  E  E  E  E  E  E     E    E  E  E  E  E  E  E  E  E  E  E   
--------------------------------------|----------------------------------------|
--------------------------------------|----------------------------------------|
--------------------------------------|----------------------------------------|
--------------------------------------|----------------------------------------|
-----------2--3--5--5--3--2-----------|----------------------------------------|
--2--3--5--------------------5--3--2--|--0----0--0--0--0--0--0--0--0--0--0--0--|


  |--3--|  |--3--|  |--3--|  |--3--|     |--3--|  |--3--|  |--3--|  |--3--|   
  E  E  E  E  E  E  E  E  E  E  E  E     E  E  E  E  E  E  E  E  E  E  E  E   
--------------------------------------|--------------------------------------|
--------------------------------------|--------------------------------------|
--------------------------------------|--------------------------------------|
--------------------------------------|--------------------------------------|
--5--5--5--5--5--5--5--5--5--5--5--5--|--------------------------------------|
--------------------------------------|--0--0--0--0--0--0--0--0--0--0--0--0--|


  |--3--|  |--3--|  |--3--|  |--3--|     |--3--|  |--3--|  |--3--|  |--3--|   
  E  E  E  E  E  E  E  E  E  E  E  E     E  E  E  E  E  E  E  E  E  E  E  E   
--------------------------------------|--------------------------------------|
--------------------------------------|--------------------------------------|
--------------------------------------|--------------------------------------|
--------------------------------------|--------------------------------------|
--2--2--2--2--2--2--2--2--2--0--0--0--|--------------------------------------|
--------------------------------------|--3--3--3--3--3--3--3--3--3--3--3--3--|


  |--3--|  |--3--|  |--3--|  |--3--|     |--3--|  |--3--|  |--3--|  |--3--|   
  E  E  E  E  E  E  E  E  E  E  E  E     E  E  E  E  E  E  E  E  E  E  E  E   
--------------------------------------|--------------------------------------|
--------------------------------------|--------------------------------------|
--------------------------------------|--------------------------------------|
--------------------------------------|--------------------------------------|
--5--5--5--5--5--5--5--5--5--5--5--5--|--3--3--3--3--3--3--2--2--2--2--2--2--|
--------------------------------------|--------------------------------------|


  |--3--|  |--3--|                  |--3--|  |--3--|  |--3--|  |--3--|   
  E  E  E  E  E  E   Q     Q        E  E  E  E  E  E  E  E  E  E  E  E   
---------------------------------|--------------------------------------|
---------------------------------|--------------------------------------|
--------------------12----11~----|--------------------------------------|
--------------------10-----9~----|--------------------------------------|
---------------------------------|--------------------------------------|
--0--0--0--0--0--0---------------|--0--0--0--0--0--0--0--0--0--0--0--0--|


  |--3--|  |--3--|  |--3--|  |--3--|     |--3--|  |--3--|  |--3--|  |--3--|   
  E  E  E  E  E  E  E  E  E  E  E  E     E  E  E  E  E  E  E  E  E  E  E  E   
--------------------------------------|--------------------------------------|
--------------------------------------|--------------------------------------|
--------------------------------------|--------------------------------------|
--------------------------------------|--------------------------------------|
--5--5--5--5--5--5--5--5--5--5--5--5--|--------------------------------------|
--------------------------------------|--0--0--0--0--0--0--0--0--0--0--0--0--|


  |--3--|  |--3--|  |--3--|  |--3--|     |--3--|  |--3--|  |--3--|  |--3--|   
  E  E  E  E  E  E  E  E  E  E  E  E     E  E  E  E  E  E  E  E  E  E  E  E   
--------------------------------------|--------------------------------------|
--------------------------------------|--------------------------------------|
--------------------------------------|--------------------------------------|
--------------------------------------|--------------------------------------|
--2--2--2--2--2--2--2--2--2--0--0--0--|--------------------------------------|
--------------------------------------|--3--3--3--3--3--3--3--3--3--3--3--3--|


  |--3--|  |--3--|  |--3--|  |--3--|     |--3--|  |--3--|  |--3--|  |--3--|   
  E  E  E  E  E  E  E  E  E  E  E  E     E  E  E  E  E  E  E  E  E  E  E  E   
--------------------------------------|--------------------------------------|
--------------------------------------|--------------------------------------|
--------------------------------------|--------------------------------------|
--------------------------------------|--------------------------------------|
--5--5--5--5--5--5--5--5--5--5--5--5--|--3--3--3--3--3--3--2--2--2--2--2--2--|
--------------------------------------|--------------------------------------|


                                         1:43                                                       
  |--3--|  |--3--|  |--3--|  |--3--|                                                                
  E  E  E  E  E  E  E  E  E  E  E  E     W                   W                   H        H         
--------------------------------------|-------------------|-------------------|--------------------|
--------------------------------------|-------------------|-------------------|--------------------|
--------------------------------------|-------------------|-------------------|--------------------|
--------------------------------------|--5----------------|--9----------------|--7-----------------|
--------------------------------------|--3----------------|--7----------------|--5--------4--------|
--0--0--0--0--0--0--0--0--0--0--0--0--|-------------------|-------------------|-----------2--------|


  H        H           W                   W                   W                 
--------------------|-------------------|-------------------|-------------------|
--------------------|-------------------|-------------------|-------------------|
--------------------|-------------------|-------------------|-------------------|
--------------------|-------------------|-------------------|--4----------------|
--5--------6--------|--7----------------|--8----------------|--2----------------|
--3--------4--------|--5----------------|--6----------------|-------------------|


  W                   H        H           W                   H        H         
-------------------|--------------------|-------------------|--------------------|
-------------------|--------------------|-------------------|--------------------|
-------------------|--------------------|-------------------|--------------------|
--8----------------|--9--------7--------|--5----------------|--7--------5--------|
--6----------------|--7--------5--------|--3----------------|--5--------3--------|
-------------------|--------------------|-------------------|--------------------|


                                                               |--3--|  |--3--|  |--3--|  |--3--|   
  W                   H        H           W                   E  E  E  E  E  E  E  E  E  E  E  E   
-------------------|--------------------|-------------------|--------------------------------------|
-------------------|--------------------|-------------------|--------------------------------------|
-------------------|--------------------|-------------------|--------------------------------------|
--4----------------|--5--------4--------|--3----------------|--------------------------------------|
--2----------------|--3--------2--------|--1----------------|--3--3--3--2--2--2--3--3--3--2--2--2--|
-------------------|--------------------|-------------------|--------------------------------------|


  |--3--|  |--3--|  |--3--|  |--3--|      |--3--|  |---3--|  |---3--|  |--3--|   
  E  E  E  E  E  E  E  E  E  E  E  E      E  E  E  E  E   E  E  E   E  E  E  E   
--------------------------------------|--12--7----------------------------------|
--------------------------------------|---------8----------------------------8--|
--------------------5--5--5--4--4--4--|------------9----------------------9-----|
--5--5--5--4--4--4--------------------|---------------9----------------9--------|
--------------------------------------|------------------10--7--9--10-----------|
--------------------------------------|-----------------------------------------|


  |--3--|  |--3--|               |--3--|  |---3--|  |---3--|  |--3--|   
  E  E  E  E  E  E  H            E  E  E  E  E   E  E  E   E  E  E  E   
-----------------------------|--12--7----------------------------------|
--------7--8--7--------------|---------8-------------------------------|
--8--9-----------8--9--------|------------9----------------------8--9--|
-----------------------------|---------------9----------------9--------|
-----------------------------|------------------10--7--9--10-----------|
-----------------------------|-----------------------------------------|


  |--3--|  |--3--|            
  E  E  E  E  E  E  H         
-----------------------------|
--------7--8--7--------------|
--8--9-----------8--9--------|
-----------------------------|
-----------------------------|
-----------------------------|


   T                 T                 T                 T                 
   |-3-|   |---3--|  |-3-|   |---3--|  |-3-|   |---3--|  |-3-|   |---3--|  
   E   S   S  S   S  E   S   S  S   S  E   S   S  S   S  E   S   S  S   S  
--14p--7h-11p-7h-11-14p--7h-11p-7h-11-15p--7h-12p-7h-12-15p--7h-12p-7h-12-|
--------------------------------------------------------------------------|
--------------------------------------------------------------------------|
--------------------------------------------------------------------------|
--------------------------------------------------------------------------|
--------------------------------------------------------------------------|


   T                   T                   T                          
   |--3-|   |---3---|  |--3-|   |---3---|  |--3-|   |---3---|         
   E    S   S   S   S  E    S   S   S   S  E    S   S   S   S  Q      
--17p--10h-14p-10h-14-17p--10h-14p-10h-14-19p--10h-15p-10h-15-19~----|
---------------------------------------------------------------------|
---------------------------------------------------------------------|
---------------------------------------------------------------------|
---------------------------------------------------------------------|
---------------------------------------------------------------------|


   |----3---|   |----3---|   |----3---|   |----3---|      |----3---|   |----3---|              
   E    E   E   E    E   E   E    E   E   E    E   E      E    E   E   E    E   E   H          
--20p--17------17p--14------19p--15------15p--12------|--15p--12------14p--11------12~--------|
-----------17-----------15-----------15-----------12--|-----------13-----------12-------------|
------------------------------------------------------|---------------------------------------|
------------------------------------------------------|---------------------------------------|
------------------------------------------------------|---------------------------------------|
------------------------------------------------------|---------------------------------------|


   T                 T                 T                 T                 
   |-3-|   |---3--|  |-3-|   |---3--|  |-3-|   |---3--|  |-3-|   |---3--|  
   E   S   S  S   S  E   S   S  S   S  E   S   S  S   S  E   S   S  S   S  
--14p--7h-11p-7h-11-14p--7h-11p-7h-11-15p--7h-12p-7h-12-15p--7h-12p-7h-12-|
--------------------------------------------------------------------------|
--------------------------------------------------------------------------|
--------------------------------------------------------------------------|
--------------------------------------------------------------------------|
--------------------------------------------------------------------------|


   T                   T                   T                          
   |--3-|   |---3---|  |--3-|   |---3---|  |--3-|   |---3---|         
   E    S   S   S   S  E    S   S   S   S  E    S   S   S   S  Q      
--17p--10h-14p-10h-14-17p--10h-14p-10h-14-19p--10h-15p-10h-15-19~----|
---------------------------------------------------------------------|
---------------------------------------------------------------------|
---------------------------------------------------------------------|
---------------------------------------------------------------------|
---------------------------------------------------------------------|


   |----3---|   |----3---|   |----3---|   |----3---|      |----3---|   |----3---|              
   E    E   E   E    E   E   E    E   E   E    E   E      E    E   E   E    E   E   H          
--20p--17------17p--14------19p--15------15p--12------|--15p--12------14p--11------12~--------|
-----------17-----------15-----------15-----------12--|-----------13-----------12-------------|
------------------------------------------------------|---------------------------------------|
------------------------------------------------------|---------------------------------------|
------------------------------------------------------|---------------------------------------|
------------------------------------------------------|---------------------------------------|


   |-----3-----|                                   |---3---|   |---3---|   
   Q     Q     Q     Q.       S   S     H          E   E   E   E   E   E   
--12----14----15----14b------14p-12-|--14~--------12--14--15--12--14--15--|
------------------------------------|-------------------------------------|
------------------------------------|-------------------------------------|
------------------------------------|-------------------------------------|
------------------------------------|-------------------------------------|
------------------------------------|-------------------------------------|


   |---3---|   |---3---|                                |------3-----|     
   E   E   E   E   E   E   Q.       S  S     H          Q      Q     Q     
--14--15--17--14--15--17--19b------19-17-|--19~--------19b----19----17----|
-----------------------------------------|--------------------------------|
-----------------------------------------|--------------------------------|
-----------------------------------------|--------------------------------|
-----------------------------------------|--------------------------------|
-----------------------------------------|--------------------------------|


   |-----3-----|                      |----3---|   |---3---|                                     
   Q     Q     Q     Q.      T  S.    E    E   E   E   E   E   H           Q     H         Q     
----------------------------------|--18p--15--------------15------------|-----------------------|
--20----19----17----19~------L-17-|-----------17------17------17--------|--L----19--------16----|
----------------------------------|---------------18--------------------|-----------------------|
----------------------------------|-------------------------------------|-----------------------|
----------------------------------|-------------------------------------|-----------------------|
----------------------------------|-------------------------------------|-----------------------|


                                       |--3--|  |--3--|  |--3--|  |--3--|  
   H          H             H          S  S  S  S  S  S  S  S  S  S  S  S  
--19b-------------------|-------------------14-16-14-13-------------------|
-------------17b--------|--17b--------14-15-------------13-14-13-11-------|
------------------------|-------------------------------------------11-13-|
------------------------|-------------------------------------------------|
------------------------|-------------------------------------------------|
------------------------|-------------------------------------------------|


   |--3--|  |--3-|  |--3--| |--3--|                            
   S  S  S  S  S S  S  S  S S  S  S Q     S T   T  T  T  T T   
-----------------------------------------------------------9h-|
--------------------------------------------------------10----|
--11-10----------------------------------------------11-------|
--------11-12-11-9--------------------------------11----------|
-------------------11-12-11-9-12-10-9~----L-9h-12-------------|
--------------------------------------------------------------|


                                                                           |----3---|   |---3---|   
   T  T  T  T  S Q     S  S   S  S  S  S   S  S  S     S   S  S  S  Q      E    E   E   E   E   E   
--14---------------------13p-11----11-17p-14----14-|--20p-17----17-20b----21p--17------------------|
-----10-------------------------12-----------16----|---------19--------------------19--------------|
--------11-----------------------------------------|-----------------------------------18------18--|
-----------11--------------------------------------|---------------------------------------19------|
--------------12-9~----L---------------------------|-----------------------------------------------|
---------------------------------------------------|-----------------------------------------------|


                                          |----3---|   |---3---|                                
   H          Q.       S  S     H         E    E   E   E   E   E      H          Q.       S  S  
----------------------------|------------19p--16------------------|----------------------------|
----------------------------|---------------------17--------------|----------------------------|
--21b--------19b------19-18-|--19---------------------16------16--|--19b--------18b------18-16-|
----------------------------|-----------------------------18------|----------------------------|
----------------------------|-------------------------------------|----------------------------|
----------------------------|-------------------------------------|----------------------------|


                |-----3-----|                                             
   Q.       E   Q     Q     Q        H          S   S  S  S  S   S  S  S  
---------------14----16----17----|--19b--------20p-17----17-17p-14----14-|
-----------14--------------------|--------------------19-----------16----|
--18~----------------------------|---------------------------------------|
---------------------------------|---------------------------------------|
---------------------------------|---------------------------------------|
---------------------------------|---------------------------------------|


                                            2:56                                          
                                                      |--3--|  |--3--|  |--3--|  |--3--|  
   S   S  S  S  S T  S. E.    E.   E.       H         S  S  S  S  S  S  S  S  S  S  S  S  
--13p-11----11-11-8----21b---21---21br---|--L--------19-21-19-17----17-19-21-19-17----17-|
---------12---------10-------------------|-----------------------19----------------19----|
-----------------------------------------|-----------------------------------------------|
-----------------------------------------|-----------------------------------------------|
-----------------------------------------|-----------------------------------------------|
-----------------------------------------|-----------------------------------------------|


   |--3--|  |--3--|  |--3--|  |--3--|  |--3--|  |--3--|  |--3--|  |--3--|  
   S  S  S  S  S  S  S  S  S  S  S  S  S  S  S  S  S  S  S  S  S  S  S  S  
--19-21-19-17-16-17-19-17-16----------------------------13-14-16-14-13----|
-----------------------------14-15-18-15-14-15-18-15-14----------------15-|
--------------------------------------------------------------------------|
--------------------------------------------------------------------------|
--------------------------------------------------------------------------|
--------------------------------------------------------------------------|


   |--3--|  |--3--|  |--3--|  |--3--|  |--3--|  |--3--|  |--3--|  |--3--|  
   S  S  S  S  S  S  S  S  S  S  S  S  S  S  S  S  S  S  S  S  S  S  S  S  
--------------13-14-16-17-16-14-13----------------------------------------|
--14-12-14-15-------------------------------------------------------------|
-----------------------------------14-16-14-13-14-13-11-11-13-11-10-10-11-|
--------------------------------------------------------------------------|
--------------------------------------------------------------------------|
--------------------------------------------------------------------------|


   |--3--|  |--3--|  |--3--|  |--3--|  |--3--|  |--3--|  |--3--|  |--3--|  
   S  S  S  S  S  S  S  S  S  S  S  S  S  S  S  S  S  S  S  S  S  S  S  S  
-----------------------------------------10-------10-13----10-13-14-10-13-|
-----10-------10-12----10-12-14-10-12-14----12-14-------14----------------|
--13----11-13-------13----------------------------------------------------|
--------------------------------------------------------------------------|
--------------------------------------------------------------------------|
--------------------------------------------------------------------------|


   |--3--|  |--3--|  |--3--|  |--3--|  |--3--|  |--3--|  |--3--|  |--3--|  
   S  S  S  S  S  S  S  S  S  S  S  S  S  S  S  S  S  S  S  S  S  S  S  S  
--14-13-10-13-14-16-14-13-14-16-17-16-14-16-17-19-17-16-14-13-16-17-16-17-|
--------------------------------------------------------------------------|
--------------------------------------------------------------------------|
--------------------------------------------------------------------------|
--------------------------------------------------------------------------|
--------------------------------------------------------------------------|


   |--3--|  |--3--|                               |------3------|                 
   S  S  S  S  S  S  T  S  T  Q      Q     E      Q      Q      Q      H          
--19-16-14-16-17-16-17-19-21-21b----21----17--|----------------------------------|
----------------------------------------------|--19b----19b----19b----19b--------|
----------------------------------------------|----------------------------------|
----------------------------------------------|----------------------------------|
----------------------------------------------|----------------------------------|
----------------------------------------------|----------------------------------|


           |---3--|  |---3--|     |---3--|  |---3--|  |---3--|  |---3--|   
  H        E   E  E  E   E  E     E   E  E  E   E  E  E   E  E  E   E  E   
-----------5p--2-----5p--2-----|--4p--1-----4p--1-----7p--4-----7p--4-----|
--L---------------2---------2--|---------2---------2---------6---------6--|
-------------------------------|------------------------------------------|
-------------------------------|------------------------------------------|
-------------------------------|------------------------------------------|
-------------------------------|------------------------------------------|


  |---3--|  |---3--|  |---3--|  |---3--|     |---3--|  |---3--|   |---3--|   |---3--|   
  E   E  E  E   E  E  E   E  E  E   E  E     E   E  E  E   E  E   E   E  E   E   E  E   
--5p--2-----5p--2-----9p--5-----9p--5-----|--7p--4-----7p--4-----10p--7-----10p--7-----|
---------2---------2---------5---------5--|---------5---------5----------7----------7--|
------------------------------------------|--------------------------------------------|
------------------------------------------|--------------------------------------------|
------------------------------------------|--------------------------------------------|
------------------------------------------|--------------------------------------------|


  |---3--|  |---3--|   |---3---|   |---3---|   
  E   E  E  E   E  E   E   E   E   E   E   E   
--9p--5-----9p--5-----12p--9------12p--9------|
---------5---------5----------10----------10--|
----------------------------------------------|
----------------------------------------------|
----------------------------------------------|
----------------------------------------------|


   |----3---|   |----3---|   |----3---|   |----3---|   
   E    E   E   E    E   E   E    E   E   E    E   E   
--14p--10------14p--10------14p--11------14p--11------|
-----------10-----------10-----------12-----------12--|
------------------------------------------------------|
------------------------------------------------------|
------------------------------------------------------|
------------------------------------------------------|


   |----3---|   |----3---|   |----3---|   |----3---|      |---3--|   |---3--|  |---3--|        
   E    E   E   E    E   E   E    E   E   E    E   E      E   E  E   E   E  E  E   E  E  Q     
--16p--12------16p--12------16p--13------17p--14------|--10p--7-------------------------------|
-----------12-----------12-----------14-----------14--|----------7--10p--7--------------------|
------------------------------------------------------|---------------------7--7p--4----------|
------------------------------------------------------|-------------------------------4--4----|
------------------------------------------------------|---------------------------------------|
------------------------------------------------------|---------------------------------------|


                        |--3-| |---3--|  |--3--|  |-3-|  |---3--|  |--3--| |--3-|   |--3--|  
  W                     S  S S S  S   S  S  S  S  S S S  S   S  S  S  S  S S S  S   S  S  S  
--------------------|--10p-7---7-13p-10----10-10p-7---7-13p-10----10-10p-7---7-13p-10----10-|
--------------------|--------9----------12----------9----------12----------9----------12----|
--4b----------------|-----------------------------------------------------------------------|
--------------------|-----------------------------------------------------------------------|
--------------------|-----------------------------------------------------------------------|
--------------------|-----------------------------------------------------------------------|


   |---3--|  |---3--|        |-----3-----|                                    
   S   S  S  S   S  S  Q     Q     Q     Q        E.    E.    E    H          
--16p-13----16p-13----19b----L----19----17----|------------------------------|
---------15--------15-------------------------|--19b---19b---19b--19b--------|
----------------------------------------------|------------------------------|
----------------------------------------------|------------------------------|
----------------------------------------------|------------------------------|
----------------------------------------------|------------------------------|


           |-----3----|                |-----3----|       |---3--|  |--3--|   |--3--|  |---3--|   
  H        Q    Q     Q       H        Q    Q     Q       E   E  E  E  E  E   E  E  E  E  E   E   
---------------------------|---------------------------|------------------7--12--7---------------|
--7--------7----9----10----|--7--------7----9----10----|---------------8------------8------------|
---------------------------|---------------------------|------------9------------------9---------|
---------------------------|---------------------------|---------9------------------------9------|
---------------------------|---------------------------|--7--10------------------------------10--|
---------------------------|---------------------------|-----------------------------------------|


                         3:32                                                                      
                         |---3---|  |--3--|  |--3--|  |--3--|  |--3--|  |--3--|  |--3--|  |--3--|  
   W                     S    S  S  S  S  S  S  S  S  S  S  S  S  S  S  S  S  S  S  S  S  S  S  S  
---------------------|--15---14-12-15-14-12-15-14-12-12-14-15-12-17-12-15-14-12-14-15-12-17-12-15-|
--10b----------------|----------------------------------------------------------------------------|
---------------------|----------------------------------------------------------------------------|
---------------------|----------------------------------------------------------------------------|
---------------------|----------------------------------------------------------------------------|
---------------------|----------------------------------------------------------------------------|


   |--3--|  |--3--|  |--3--|  |--3--|  |--3--|  |--3--|  |--3--|  |--3--|  
   S  S  S  S  S  S  S  S  S  S  S  S  S  S  S  S  S  S  S  S  S  S  S  S  
--14-14-15-17-15-14-15-17-19-17-15-17-19-20-19-17-15-19-17-15-14-17-15-14-|
--------------------------------------------------------------------------|
--------------------------------------------------------------------------|
--------------------------------------------------------------------------|
--------------------------------------------------------------------------|
--------------------------------------------------------------------------|


   |--3--|  |--3--|  |--3--|  |--3--|  |--3--|  |--3--|  |--3--|  |--3-|  
   S  S  S  S  S  S  S  S  S  S  S  S  S  S  S  S  S  S  S  S  S  S  S S  
--14-14-15-17-15-14-15-17-19-17-15-14-17-15-14-12-15-14-12-10-14-12-10-8-|
-------------------------------------------------------------------------|
-------------------------------------------------------------------------|
-------------------------------------------------------------------------|
-------------------------------------------------------------------------|
-------------------------------------------------------------------------|


   |--3--|  |--3-|  |--3-|  |--3-|  |--3-|  |-3-|  |-3-|  |-3-|                         |-3-|  
   S  S  S  S  S S  S  S S  S  S S  S  S S  S S S  S S S  S S S    H         Q     S. T S S S  
--12-10-14-12-10-8-12-10-8-12-10-8------------------------------|---------------------------7-|
-----------------------------------12-10-9----------------------|-------------------------8---|
-------------------------------------------11-9-7---------------|-----------------------9-----|
--------------------------------------------------10-9-7--------|-----------------------------|
---------------------------------------------------------10-9-7-|--7b--------7~----L----------|
----------------------------------------------------------------|-----------------------------|


                   |--3-|                 |-----3-----|     |-----3-----|     
   S  E.    S   S  S  S S Q.       E      Q     Q     Q     Q     Q     Q     
--12-11~---12p-11p-8------------------|--12----14----15----17----19----20----|
---------------------10-----------12--|--------------------------------------|
------------------------9-L~----------|--------------------------------------|
--------------------------------------|--------------------------------------|
--------------------------------------|--------------------------------------|
--------------------------------------|--------------------------------------|


                           3:45                                   
                           |---3---|  |--3--|  |--3--|  |--3--|   
   H          H            E    E  E  E  E  E  E  E  E  E  E  E   
--22b--------22~--------|----------------------------------------|
------------------------|----------------------------------------|
------------------------|----------------------------------------|
------------------------|----------------------------------------|
------------------------|----------------------------------------|
------------------------|--0----0--0--0--0--0--0--0--0--0--0--0--|


  |--3--|  |--3--|  |--3--|  |--3--|     |--3--|  |--3--|  |--3--|  |--3--|   
  E  E  E  E  E  E  E  E  E  E  E  E     E  E  E  E  E  E  E  E  E  E  E  E   
--------------------------------------|--------------------------------------|
--------------------------------------|--------------------------------------|
--------------------------------------|--------------------------------------|
--------------------------------------|--------------------------------------|
--5--5--5--5--5--5--5--5--5--5--5--5--|--------------------------------------|
--------------------------------------|--0--0--0--0--0--0--0--0--0--0--0--0--|


  |--3--|  |--3--|  |--3--|  |--3--|     |--3--|  |--3--|  |--3--|  |--3--|   
  E  E  E  E  E  E  E  E  E  E  E  E     E  E  E  E  E  E  E  E  E  E  E  E   
--------------------------------------|--------------------------------------|
--------------------------------------|--------------------------------------|
--------------------------------------|--------------------------------------|
--------------------------------------|--------------------------------------|
--2--2--2--2--2--2--2--2--2--0--0--0--|--------------------------------------|
--------------------------------------|--3--3--3--3--3--3--3--3--3--3--3--3--|


  |--3--|  |--3--|  |--3--|  |--3--|     |--3--|  |--3--|  |--3--|  |--3--|   
  E  E  E  E  E  E  E  E  E  E  E  E     E  E  E  E  E  E  E  E  E  E  E  E   
--------------------------------------|--------------------------------------|
--------------------------------------|--------------------------------------|
--------------------------------------|--------------------------------------|
--------------------------------------|--------------------------------------|
--5--5--5--5--5--5--5--5--5--5--5--5--|--3--3--3--3--3--3--2--2--2--2--2--2--|
--------------------------------------|--------------------------------------|


  |--3--|  |--3--|                  |--3--|  |--3--|  |--3--|  |--3--|   
  E  E  E  E  E  E   Q     Q        E  E  E  E  E  E  E  E  E  E  E  E   
---------------------------------|--------------------------------------|
---------------------------------|--------------------------------------|
--------------------12----11~----|--------------------------------------|
--------------------10-----9~----|--------------------------------------|
---------------------------------|--------------------------------------|
--0--0--0--0--0--0---------------|--0--0--0--0--0--0--0--0--0--0--0--0--|


  |--3--|  |--3--|  |--3--|  |--3--|     |--3--|  |--3--|  |--3--|  |--3--|   
  E  E  E  E  E  E  E  E  E  E  E  E     E  E  E  E  E  E  E  E  E  E  E  E   
--------------------------------------|--------------------------------------|
--------------------------------------|--------------------------------------|
--------------------------------------|--------------------------------------|
--------------------------------------|--------------------------------------|
--5--5--5--5--5--5--5--5--5--5--5--5--|--------------------------------------|
--------------------------------------|--0--0--0--0--0--0--0--0--0--0--0--0--|


  |--3--|  |--3--|  |--3--|  |--3--|     |--3--|  |--3--|  |--3--|  |--3--|   
  E  E  E  E  E  E  E  E  E  E  E  E     E  E  E  E  E  E  E  E  E  E  E  E   
--------------------------------------|--------------------------------------|
--------------------------------------|--------------------------------------|
--------------------------------------|--------------------------------------|
--------------------------------------|--------------------------------------|
--2--2--2--2--2--2--2--2--2--0--0--0--|--------------------------------------|
--------------------------------------|--3--3--3--3--3--3--3--3--3--3--3--3--|


  |--3--|  |--3--|  |--3--|  |--3--|     |--3--|  |--3--|  |--3--|  |--3--|   
  E  E  E  E  E  E  E  E  E  E  E  E     E  E  E  E  E  E  E  E  E  E  E  E   
--------------------------------------|--------------------------------------|
--------------------------------------|--------------------------------------|
--------------------------------------|--------------------------------------|
--------------------------------------|--------------------------------------|
--5--5--5--5--5--5--5--5--5--5--5--5--|--3--3--3--3--3--3--2--2--2--2--2--2--|
--------------------------------------|--------------------------------------|


                                         4:10                                                       
  |--3--|  |--3--|  |--3--|  |--3--|                                                                
  E  E  E  E  E  E  E  E  E  E  E  E     W                   W                   H        H         
--------------------------------------|-------------------|-------------------|--------------------|
--------------------------------------|-------------------|-------------------|--------------------|
--------------------------------------|-------------------|-------------------|--------------------|
--------------------------------------|--5----------------|--9----------------|--7-----------------|
--------------------------------------|--3----------------|--7----------------|--5--------4--------|
--0--0--0--0--0--0--0--0--0--0--0--0--|-------------------|-------------------|-----------2--------|


  H        H           W                   W                   W                 
--------------------|-------------------|-------------------|-------------------|
--------------------|-------------------|-------------------|-------------------|
--------------------|-------------------|-------------------|-------------------|
--------------------|-------------------|-------------------|--4----------------|
--5--------6--------|--7----------------|--8----------------|--2----------------|
--3--------4--------|--5----------------|--6----------------|-------------------|


  W                   H        H           W                   H        H         
-------------------|--------------------|-------------------|--------------------|
-------------------|--------------------|-------------------|--------------------|
-------------------|--------------------|-------------------|--------------------|
--8----------------|--9--------7--------|--5----------------|--7--------5--------|
--6----------------|--7--------5--------|--3----------------|--5--------3--------|
-------------------|--------------------|-------------------|--------------------|


                                                               |--3--|  |--3--|  |--3--|  |--3--|   
  W                   H        H           W                   E  E  E  E  E  E  E  E  E  E  E  E   
-------------------|--------------------|-------------------|--------------------------------------|
-------------------|--------------------|-------------------|--------------------------------------|
-------------------|--------------------|-------------------|--------------------------------------|
--4----------------|--5--------4--------|--3----------------|--------------------------------------|
--2----------------|--3--------2--------|--1----------------|--3--3--3--2--2--2--3--3--3--2--2--2--|
-------------------|--------------------|-------------------|--------------------------------------|


                                         \2/                        \1/           
  |--3--|  |--3--|  |--3--|  |--3--|                                              
  E  E  E  E  E  E  E  E  E  E  E  E     Q    Q    H           Q    H.            
--------------------------------------|---------------------|--------------------|
--------------------------------------|---------------------|--------------------|
--------------------5--5--5--4--4--4--|---------------------|-------9------------|
--5--5--5--4--4--4--------------------|---------------------|--------------------|
--------------------------------------|---------------------|--------------------|
--------------------------------------|--0----L----L--------|--L-----------------|


  |--3--|  |--3--|  |--3--| |--3--|  |--3--|  |--3--| |--3--|  |--3--|  
  S  S  S  S  S  S  S  S  S S  S  S  S  S  S  S  S  S S  S  S  S  S  S  
-----------------------------------------------------------------------|
----------------10------------------------10------------------------10-|
--9-11-12-11-12----12-11-12-9-11-12-11-12----12-11-12-9-11-12-11-12----|
-----------------------------------------------------------------------|
-----------------------------------------------------------------------|
-----------------------------------------------------------------------|


                                                                        \2/                  \2/  
   |--3-|  |--3-| |--3--|  |--3-|                |--3-| |-3-|  |-3-|  |---3--| |--3-| |--3-|      
   S  S S  S S  S S  S  S  S  S S  H             S S  S S S S  S S S  S Q    S S  S S S  S S E    
----------------------------------------------|--------------------------------------------------|
----------------------------------------------|--------------------------------------------------|
--12-11-9----9-11-9---------------------------|-------------------------7------------------------|
----------12--------12-10-12-10-9-10br--------|--7-9-10-9-7-9----7-9-10------7-9-10-9-7-10-9-7---|
----------------------------------------------|---------------10---------------------------------|
----------------------------------------------|--------------------------------------------------|


            A.H         A.H                                      
            \1/         \1/                                      
                                  |-----3----|  |--3--|  |--3-|  
  H         H           H         S  S E  S  S  S  S  S  S  S S  
---------------------|------------------------------------------|
---------------------|----------------------------10------------|
-----------10--------|--7--------12-11-9--9-11-12----11-12-11-9-|
--L------------------|------------------------------------------|
---------------------|------------------------------------------|
---------------------|------------------------------------------|


                                                                A.H                 
   |--3-|  |--3-|  |--3--|  |--3-|                                                  
   S  S S  S  S S  S  S  S  S  S S  S. E   T  Q        S   S  S H         S  Q      
---------------------------------------------------|-------------------------------|
---------------------------------------------------|------------------------10~----|
--11----9-11-12-9-11-12----------9-12-11b--L-12----|--12p-11p-9-9~--------L--------|
-----12-----------------12-10-12-------------------|-------------------------------|
---------------------------------------------------|-------------------------------|
---------------------------------------------------|-------------------------------|


                 A.H                                                   
  Q     S   S  S Q     S  E   E      S. T  T  S  T  H          E   E   
-------------------------12--14--|--15-14-12-14-15-14~--------12--14--|
--L------------------------------|------------------------------------|
-------12p-11p-9-9~----L---------|------------------------------------|
---------------------------------|------------------------------------|
---------------------------------|------------------------------------|
---------------------------------|------------------------------------|


   |--3--|  |--3--|  |--3--|  |--3--|  |--3--|  |--3--|  |--3--|  |--3--|  
   S  S  S  S  S  S  S  S  S  S  S  S  S  S  S  S  S  S  S  S  S  S  S  S  
--15-17-15-14-12-14-15-14-15----12-15-14-12----15-14-12----------14-12----|
-----------------------------15-------------15----------15-13-15-------15-|
--------------------------------------------------------------------------|
--------------------------------------------------------------------------|
--------------------------------------------------------------------------|
--------------------------------------------------------------------------|


   |--3--|  |--3--|  |--3--|  |--3--|  |--3--|  |--3--|  |--3--|  |--3--|  
   S  S  S  S  S  S  S  S  S  S  S  S  S  S  S  S  S  S  S  S  S  S  S  S  
--12-14-12----------12-15-14-12-------15-14-12----------12-12-12-12-12-12-|
-----------15-13-15-------------15-13----------15-13-15-------------------|
--------------------------------------------------------------------------|
--------------------------------------------------------------------------|
--------------------------------------------------------------------------|
--------------------------------------------------------------------------|


   |--3--|  |--3--|  |--3--|  |--3--|  |--3--|  |--3--|                              
   S  S  S  S  S  S  S  S  S  S  S  S  S  S  S  S  S  S  Q       H         H         
--14-14-14-14-14-14-15-15-15-15-15-15-17-17-17-17-17-17-15----|--L--------12--------|
--------------------------------------------------------------|---------------------|
--------------------------------------------------------------|---------------------|
--------------------------------------------------------------|---------------------|
--------------------------------------------------------------|---------------------|
--------------------------------------------------------------|---------------------|


                                     5:01                                                
                                     |---3--| |-3-| |-3-| |-3-| |-3-| |-3-| |-3-| |-3-|  
   S   S   E   E   E   H             S    S S S S S S S S S S S S S S S S S S S S S S S  
----------------------------------|-----------------------------------------------------|
--13h-15p-13--13--12--13br--------|-----------------------------------------------------|
----------------------------------|---------------------------------------------------5-|
----------------------------------|---------------------------------5---5-7-5-7-9-7-9---|
----------------------------------|---------------5---5-7-5-7-8-7-8---8-----------------|
----------------------------------|--5----7-8-7-8---8-----------------------------------|


  |-3-| |-3-| |-3-| |-3-| |-3-| |-3-| |-3-| |--3-|  
  S S S S S S S S S S S S S S S S S S S S S S S  S  
------------------------------5---5-7-5-7-8-7-8-10-|
------------5---5-6-5-6-8-6-8---8------------------|
----5-7-5-7---7------------------------------------|
--9------------------------------------------------|
---------------------------------------------------|
---------------------------------------------------|


  |--3--|  |--3--|  |--3--|  |--3--|  |--3--|  |--3--|  |--3--|  |--3--|  
  S  S  S  S  S  S  S  S  S  S  S  S  S  S  S  S  S  S  S  S  S  S  S  S  
--8-10-12-10-12-13-12-10-12-13-12-13-15-13-15-17-15-13-15-17-15-17-19-17-|
-------------------------------------------------------------------------|
-------------------------------------------------------------------------|
-------------------------------------------------------------------------|
-------------------------------------------------------------------------|
-------------------------------------------------------------------------|


   |--3--|  |--3--|                                                                             
   S  S  S  S  S  S  H        Q       W                   W                   W                 
--17-19-17-19-20-22b-L-------------|-------------------|-------------------|-------------------|
-----------------------------------|-------------------|-------------------|-------------------|
-----------------------------------|-------------------|-------------------|-------------------|
-----------------------------------|-------------------|-------------------|-------------------|
------------------------------2----|--L----------------|--L----------------|--L----------------|
------------------------------0----|--L----------------|--L----------------|--L----------------|


  W                   W                   W                   H.           E  E   
-------------------|-------------------|-------------------|---------------------|
-------------------|-------------------|-------------------|---------------------|
-------------------|-------------------|-------------------|---------------------|
-------------------|-------------------|-------------------|---------------------|
--L----------------|--L----------------|--L----------------|--L---------------2--|
--L----------------|--L----------------|--L----------------|--L---------------0--|


  Q    H.                             
--------------------|---------------||
--------------------|---------------||
--------------------|---------------||
--------------------|---------------||
--L-----------------|---------------||
--L-----------------|---------------||




Duration Legend
---------------
W - whole
H - half
Q - quarter
E - 8th
S - 16th
T - 32nd
X - 64th
. - note dotted
|-n-|  - n-tuplets


Tablature Legend
----------------
L - tied note
x - dead note
g - grace note
(n) - ghost note
> - accentuded note
NH - natural harmonic
AH - artificial harmonic
TH - tapped harmonic
SH - semi harmonic
PH - pitch harmonic
h - hammer on
p - pull off
b - bend
br - bendRelease
pb - preBend
pbr - preBendRelease
brb - bendReleaseBend
\n/ - tremolo bar dip
\n - tremolo bar dive
-/n - tremolo bar Release up
/n\ - tremolo bar inverted dip
/n - tremolo bar return
-\n - tremolo bar Release down
S - shift slide
s - legato slide
/ -  slide into from below or out of upwards
\ -  slide into from above or out of downwards
~ - vibrato
W - wide vibrato
tr - trill
TP - tremolo picking
T - tapping
S - slap
P - pop
< - fade in
^ - brush up
v - brush down
comments
We did not receive enough feedback on this tab! Please rate:
print report bad tab
1 2 3 4 5
I want to post or [tab]
guest
You may want to rate the tab now too:
select rating
Please do not post tabs as comments. Select "correction" instead!