Oops, an error
Loading. Please wait.

Kamphund Tab

ver1
ver1

Solo

Whole song

Interactive

More versions @911Tabs.com
3,678 views 6 this week
no commentswrite comment
1 2 3 4 5
excellent!
x 2
add to favorites launch autoscroll
font size
0
reset
Autoscroll
+/-
esc
set tempo
stop
Contributor
WARNING: You are trying to view
                                    content from Ultimate-Guitar.com
                                    in an unauthorized application,
                                    which is prohibited.

                                    Please use an official Ultimate
                                    Guitar Tabs application for iPhone,
                                    iPad or Android to access legitimate
                                    chords, guitar, bass, and drum tabs
                                    from Ultimate-Guitar.com database.

                                    Type "ultimate guitar tabs" in Apple
                                    App Store's or Android Market's
                                    search to find the application.
-------------------------------------------------------------------------------
                             Kamphund - Raubtier
-------------------------------------------------------------------------------



Tabbed by: Poxnar
Email: poxnar@hotmail.com

Tuning: Standard (EADGBe)

This is my first guitar tab, please rate and comment.


Intro:
e|-------------------------------|
B|-------------------------------|
G|-------------------------------|      x3
D|-7--6--7--6--7--6--7--7--7--7--| 
A|-7--6--7--6--7--6--7--7--7--7--|
E|-5--4--5--4--5--4--5--5--5--5--| 
                     x  x  x  x 

e|----------------------------------------|
B|----------------------------------------|
G|----------------------------------------|
D|-7--6--7--6--7--6--7--7--7--7-----------|
A|-7--6--7--6--7--6--7--7--7--7-----------|
E|-5--4--5--4--5--4--5--5--5--5-----------|


e|-------------------------------|
B|-------------------------------|
G|-------------------------------|      x3
D|-7--6--7--6--7--6--7--7--7--7--| 
A|-7--6--7--6--7--6--7--7--7--7--|
E|-5--4--5--4--5--4--5--5--5--5--| 
                     x  x  x  x 

e|---------------------------------------------------------------------------|
B|---------------------------------------------------------------------------|
G|---------------------------------------------------------------------------|
D|-7--6--7--6--7--6--7--7--7--7--7--7--7--7--7--7--7--7----------------------|
A|-7--6--7--6--7--6--7--7--7--7--7--7--7--7--7--7--7--7----------------------|
E|-5--4--5--4--5--4--5--5--5--5--5--5--5--5--5--5--5--5----------------------|


Verse:
e|---------------------------------------------------------------------------|
B|---------------------------------------------------------------------------|
G|---------------------------------------------------------------------------|
D|-----------------------------------------------------------------------7---|
A|-----------------------------------------------------------------------7---|
E|-----------------------------------------------------------------------5---|


e|-------------------------------|
B|-------------------------------|
G|-------------------------------|      x3
D|-7--6--7--6--7--6--7--7--7--7--| 
A|-7--6--7--6--7--6--7--7--7--7--|
E|-5--4--5--4--5--4--5--5--5--5--| 
                     x  x  x  x 

e|---------------------------------------------------------------------------|
B|---------------------------------------------------------------------------|
G|---------------------------------------------------------------------------|
D|-7--6--7--6--7--6--7--7--7--7--7--7--7--7--7--7--7--7----------------------|
A|-7--6--7--6--7--6--7--7--7--7--7--7--7--7--7--7--7--7----------------------|
E|-5--4--5--4--5--4--5--5--5--5--5--5--5--5--5--5--5--5----------------------|


e|---------------------------------------------------------------------------|
B|---------------------------------------------------------------------------|
G|---------------------------------------------------------------------------|
D|-----------------------------------------------------------------------7---|
A|-----------------------------------------------------------------------7---|
E|-----------------------------------------------------------------------5---|


Chorus:
e|---------------------------------------------------------------------------|
B|---------------------------------------------------------------------------|
G|---------------------------------------------------------------------------|
D|-7---------------8---------------6---------------9---------------7---------|
A|-7---------------8---------------6---------------9---------------7---------|
E|-5---------------6---------------4---------------7---------------5---------|


e|-------------------------------------------------------------|
B|-------------------------------------------------------------|
G|-------------------------------------------------------------|
D|-8---------------6---------------9----9-8-7-6----7--7--7--7--|
A|-8---------------6---------------9----9-8-7-6----7--7--7--7--|
E|-6---------------4---------------7----7-6-5-4----5--5--5--5--|


e|----------------------------------------------------------------------------|
B|----------------------------------------------------------------------------|
G|----------------------------------------------------------------------------|
D|-8--8--8--8------6--6--6--6------9--9--9--9------7--7--7--7------8--8--8--8-|
A|-8--8--8--8------6--6--6--6------9--9--9--9------7--7--7--7------8--8--8--8-|
E|-6--6--6--6------4--4--4--4------7--7--7--7------5--5--5--5------6--6--6--6-|


e|---------------------------------------------|
B|---------------------------------------------|
G|---------------------------------------------|
D|-6--6--6--6------7-7-7-7------8-8-8-8--------|
A|-6--6--6--6------7-7-7-7------8-8-8-8--------|
E|-4--4--4--4------5-5-5-5------6-6-6-6--------|


Solo:
e|-20-16-19-16-18-16-17-15-16-14-15-13-14-12-13-11-12-10-11-9----------------|
B|-----------------------------------------------------------9-10-11-1212----|
G|---------------------------------------------------------------------------|
D|---------------------------------------------------------------------------|
A|---------------------------------------------------------------------------|
E|---------------------------------------------------------------------------|


e|---------------------------------------------------------------------------|
B|-1010-9---9----------------------------------------------------------------|
G|--------9--10-9--7b-7h9-7h9-8h10-8h10-9h11-9h11-10h12-10h12-11h13-11h13----|
D|---------------------------------------------------------------------------|
A|---------------------------------------------------------------------------|
E|---------------------------------------------------------------------------|


e|---------------------------------------------------------------------------|
B|---------------------------------------------------------------------------|
G|-12h14-12h14-13h15-13h16-14h17-14h17-15h18-15h18-16h19-16h19-17h20-17h21---|
D|---------------------------------------------------------------------------|
A|---------------------------------------------------------------------------|
E|---------------------------------------------------------------------------|


e|---------------------------------------------------------------------------|
B|-------------18b-21~~~~~~~-------------------------------------------------|
G|-18h22-18h22---------------------------------------------------------------|
D|---------------------------------------------------------------------------|
A|---------------------------------------------------------------------------|
E|---------------------------------------------------------------------------|


Bridge (played quietly):

e|---------------------------------------------------------------------|
B|---------------------------------------------------------------------|
G|---------------------------------------------------------------------|
D|-----------------------------------------------------------------6---|
A|---6---6---6-6/7\6---6---6-6/7\6-6---6---6-6/7\6---6---6-6/7\6---6---|
E|-4---4---4---------4---4-----------4---4---------4---4---------4-4---|


Chorus:
e|---------------------------------------------------------------------------|
B|---------------------------------------------------------------------------|
G|---------------------------------------------------------------------------|
D|-7---------------8---------------6---------------9---------------7---------|
A|-7---------------8---------------6---------------9---------------7---------|
E|-5---------------6---------------4---------------7---------------5---------|


e|-------------------------------------------------------------|
B|-------------------------------------------------------------|
G|-------------------------------------------------------------|
D|-8---------------6---------------9----9-8-7-6----7--7--7--7--|
A|-8---------------6---------------9----9-8-7-6----7--7--7--7--|
E|-6---------------4---------------7----7-6-5-4----5--5--5--5--|


e|----------------------------------------------------------------------------|
B|----------------------------------------------------------------------------|
G|----------------------------------------------------------------------------|
D|-8--8--8--8------6--6--6--6------9--9--9--9------7--7--7--7------8--8--8--8-|
A|-8--8--8--8------6--6--6--6------9--9--9--9------7--7--7--7------8--8--8--8-|
E|-6--6--6--6------4--4--4--4------7--7--7--7------5--5--5--5------6--6--6--6-|


e|---------------------------------------------|
B|---------------------------------------------|
G|---------------------------------------------|
D|-6--6--6--6------7-7-7-7------8-8-8-8--------|
A|-6--6--6--6------7-7-7-7------8-8-8-8--------|
E|-4--4--4--4------5-5-5-5------6-6-6-6--------|

Outro:
e|-------------------------------|
B|-------------------------------|
G|-------------------------------|      x7
D|-7--6--7--6--7--6--7--7--7--7--| 
A|-7--6--7--6--7--6--7--7--7--7--|
E|-5--4--5--4--5--4--5--5--5--5--| 
                     x  x  x  x 

e|---------------------------------------------------------------------------|
B|---------------------------------------------------------------------------|
G|---------------------------------------------------------------------------|
D|-7--6--7--6--7--6--7--7--7--7--7--7--7--7--7--7--7--7----------------------|
A|-7--6--7--6--7--6--7--7--7--7--7--7--7--7--7--7--7--7----------------------|
E|-5--4--5--4--5--4--5--5--5--5--5--5--5--5--5--5--5--5----------------------|


************************************

| /   slide up
| \   slide down
| h   hammer-on
| p   pull-off
| ~   vibrato
| +   harmonic
| x   Mute note
| b   Bend

************************************
comments
We did not receive enough feedback on this tab! Please rate:
print report bad tab
1 2 3 4 5
I want to post or [tab]
guest
You may want to rate the tab now too:
select rating
Please do not post tabs as comments. Select "correction" instead!