Oops, an error
Loading. Please wait.

Way To Go Tab

44 views 1 this week
no commentswrite comment
1 2 3 4 5
please rate
add to favorites launch autoscroll
font size
0
reset
Autoscroll
+/-
esc
set tempo
stop
Contributor
WARNING: You are trying to view
                                    content from Ultimate-Guitar.com
                                    in an unauthorized application,
                                    which is prohibited.

                                    Please use an official Ultimate
                                    Guitar Tabs application for iPhone,
                                    iPad or Android to access legitimate
                                    chords, guitar, bass, and drum tabs
                                    from Ultimate-Guitar.com database.

                                    Type "ultimate guitar tabs" in Apple
                                    App Store's or Android Market's
                                    search to find the application.
way to go



razors edge



TRANSCRIBED BY R. G.





para la cumpleaƱera, 2 feb, felicidades!!! 

    pm.............     .............     .............     .............                        

                  
e:------------------------------------------------------------------------|
B:------------------------------------------------------------------------|
G:------------------------------------------------------------------------|
D:-------------------2--2-2-2-2-2-2-2--4--4-4-4-4-4-4-4--2--2-2-2-2-2-2-2-|
A:-2--2-2-2-2-2-2-2--0--0-0-0-0-0-0-0--2--2-2-2-2-2-2-2--0--0-0-0-0-0-0-0-|
E:-0--0-0-0-0-0-0-0-------------------------------------------------------|

    pm.............     .............     .............     .........                            

              
e:--------------------------------------------------------------------|
B:--------------------------------------------------------------------|
G:--------------------------------------------------------------------|
D:-------------------2--2-2-2-2-2-2-2--4--4-4-4-4-4-4-4--4--4-4-4-4-4-|
A:-2--2-2-2-2-2-2-2--0--0-0-0-0-0-0-0--2--2-2-2-2-2-2-2--2--2-2-2-2-2-|
E:-0--0-0-0-0-0-0-0---------------------------------------------------|

  way to go...
    pm.............     .............     .............     .............                        

                  
e:------------------------------------------------------------------------|
B:------------------------------------------------------------------------|
G:------------------------------------------------------------------------|
D:-------------------2--2-2-2-2-2-2-2--4--4-4-4-4-4-4-4--2--2-2-2-2-2-2-2-|
A:-2--2-2-2-2-2-2-2--0--0-0-0-0-0-0-0--2--2-2-2-2-2-2-2--0--0-0-0-0-0-0-0-|
E:-0--0-0-0-0-0-0-0-------------------------------------------------------|

    pm.............     .............     .............                                          

     
e:--------------------------------------------------------------------|
B:--------------------------------------------------------------------|
G:--------------------------------------------------------------------|
D:-------------------2--2-2-2-2-2-2-2--4--4-4-4-4-4-4-4--4--4-4-4-4-4-|
A:-2--2-2-2-2-2-2-2--0--0-0-0-0-0-0-0--2--2-2-2-2-2-2-2--2--2-2-2-2-2-|
E:-0--0-0-0-0-0-0-0---------------------------------------------------|


e:---------------------------------------------------------|
B:---------------------------------------------------------|
G:---------------------------------------------------------|
D:-9-9----------9-9----------9-9---------------------------|
A:-7-7--7--7-7--7-7--7--7-7--7-7--7--7-7--7/9--9-9-9-9-9-9-|
E:------5--5-5-------5--5-5-------5--5-5--5/7--7-7-7-7-7-7-|

   way to go...
e:------------------------------------------------------------------------|
B:------------------------------------------------------------------------|
G:------------------------------------------------------------------------|
D:-9--9-9-9-9-9-9-9-------------------------------------------------------|
A:-7--7-7-7-7-7-7-7--7--7-7-7-7-7-7-7--9--9-9-9-9-9-9-9--7--7-7-7-7-7-7-7-|
E:-------------------5--5-5-5-5-5-5-5--7--7-7-7-7-7-7-7--5--5-5-5-5-5-5-5-|

e:------------------------------------------------------------------------|
B:------------------------------------------------------------------------|
G:------------------------------------------------------------------------|
D:-9--9-9-9-9-9-9-9-------------------------------------------------------|
A:-7--7-7-7-7-7-7-7--7--7-7-7-7-7-7-7--9--9-9-9-9-9-9-9--9--9-9-9-9-9-9-9-|
E:-------------------5--5-5-5-5-5-5-5--7--7-7-7-7-7-7-7--7--7-7-7-7-7-7-7-|

e:------------------------------------------------------------------------|
B:------------------------------------------------------------------------|
G:------------------------------------------------------------------------|
D:-9--9-9-9-9-9-9-9-------------------------------------------------------|
A:-7--7-7-7-7-7-7-7--7--7-7-7-7-7-7-7--9--9-9-9-9-9-9-9--7--7-7-7-7-7-7-7-|
E:-------------------5--5-5-5-5-5-5-5--7--7-7-7-7-7-7-7--5--5-5-5-5-5-5-5-|

e:------------------------------------------------------------------------|
B:------------------------------------------------------------------------|
G:------------------------------------------------------------------------|
D:-9--9-9-9-9-9-9-9-------------------------------------------------------|
A:-7--7-7-7-7-7-7-7--7--7-7-7-7-7-7-7--9--9-9-9-9-9-9-9--9--9-9-9-9-9-9-9-|
E:-------------------5--5-5-5-5-5-5-5--7--7-7-7-7-7-7-7--7--7-7-7-7-7-7-7-|

e:---------------------------------------------------------|
B:---------------------------------------------------------|
G:---------------------------------------------------------|
D:-9-9----------9-9----------9-9---------------------------|
A:-7-7--7--7-7--7-7--7--7-7--7-7--7--7-7--7/9--9-9-9-9-9-9-|
E:------5--5-5-------5--5-5-------5--5-5--5/7--7-7-7-7-7-7-|


                                                        pick slide
e:------------------------------------------------------------------|
B:------------------------------------------------------------------|
G:------------------------------------------------------------------|
D:-9---------------(9)----------------9-----------------------------|
A:-7---------------(7)----------------7-----------------x\----------|
E:------------------------------------------------------x\----------|

   way to go...
e:------------------------------------------------------------------------------|
B:------------------------------------------------------------------------------|
G:------------------------------------------------------------------------------|
D:-9--9-9-9-9-9-9-9--------------------11-11-11-11-11-11-11-11------------------|
A:-7--7-7-7-7-7-7-7--7--7-7-7-7-7-7-7--9--9--9--9--9--9--9--9--9--9-9-9-9-9-9-9-|
E:-------------------5--5-5-5-5-5-5-5--------------------------7--7-7-7-7-7-7-7-|

e:-----------------------------------------------------------|
B:-----------------------------------------------------------|
G:-----------------------------------------------------------|
D:-9--9-9-9-9-9-9-9--------------------11-11-11--13-11-13-11-|
A:-7--7-7-7-7-7-7-7--7--7-7-7-7-7-7-7--9--9--9---11-9--11-9--|
E:-------------------5--5-5-5-5-5-5-5------------------------|

e:---------------------------------------------------------|
B:---------------------------------------------------------|
G:---------------------------------------------------------|
D:-9-9----------9-9----------9-9---------------------------|
A:-7-7--7--7-7--7-7--7--7-7--7-7--7--7-7--7/9--9-9-9-9-9-9-|
E:------5--5-5-------5--5-5-------5--5-5--5/7--7-7-7-7-7-7-|

e:----------------------------------------------------------------------------------|
B:----------------------------------------------------------------------------------|
G:----------------------------------------------------------------------------------|
D:-9---------------9----------------9-----------------------------------------------|
A:-7---------------7----------------7---------9--9-9-9-9-9--12-12-12-12-12-12-12-12-|
E:-----------------0----------------0---------7--7-7-7-7-7--10-10-10-10-10-10-10-10-|


 solo
e:----------------------------------16-14-12-12---------|
B:-12b-12b-12b-12b-12b-12b-12b-12b----------------------|
G:-14b-14b-14b-14b-14b-14b-14b-14b----------------13-14-|
D:------------------------------------------------------|
A:------------------------------------------------------|
E:------------------------------------------------------|

e:---------------------------------------------------------------------------|
B:---------------------------------------------------------------------------|
G:--------------------------------------13-13-13-13-13-13--14-14-14-14-14-14-|
D:-14-14-14-14-14-14-16-16-16-16-16-16---------------------------------------|
A:---------------------------------------------------------------------------|
E:---------------------------------------------------------------------------|

e:---------------------------------------------------------------|
B:-----------------------------------12-12-15b-------------------|
G:-14-16-14-16-14-16-14-16--14-14-14-------------12b-11----11----|
D:------------------------------------------------------14----14-|
A:---------------------------------------------------------------|
E:---------------------------------------------------------------|

e:-----------------------------------------------------------------|
B:-------------------------------------------------------------3---|
G:-------13-13-11-11--13-11--13-11-10-9-8-7-6-5-4--3h4-3h4-3h4---4-|
D:-14-14-----------------------------------------------------------|
A:-----------------------------------------------------------------|
E:-----------------------------------------------------------------|

e:------------------------------------------------------------|
B:-12-12-12---8-7--10-9--12-12--12-12--12--12-12-12-----------|
G:-11-11-11---7-7--9--9--11-11--11-11--11--11-11-11-----------|
D:------------------------------------------------------------|
A:------------------------------------------------------------|
E:------------------------------------------------------------|

  ahhhh....        ohhh....
e:--------------------------------------------------------------------|
B:--------------------------------------------------------------------|
G:--------------------------------------------------------------------|
D:-9--9-9-9-9-9-9--9--9-9-9-9-9-9--6--6-6-6-6-6-6-6--7--7-7-7-7-7-7-7-|
A:-7--7-7-7-7-7-7--7--7-7-7-7-7-7--4--4-4-4-4-4-4-4--5--5-5-5-5-5-5-5-|
E:--------------------------------------------------------------------|

e:--------------------------------------------------------------------|
B:--------------------------------------------------------------------|
G:--------------------------------------------------------------------|
D:-9--9-9-9-9-9-9--9--9-9-9-9-9-9--6--6-6-6-6-6-6-6--7--7-7-7-7-7-7-7-|
A:-7--7-7-7-7-7-7--7--7-7-7-7-7-7--4--4-4-4-4-4-4-4--5--5-5-5-5-5-5-5-|
E:--------------------------------------------------------------------|


e:------------------------------------------------------------------------------|
B:------------------------------------------------------------------------------|
G:------------------------------------------------------------------------------|
D:-9--9-9-9-9-9-9-9--------------------11-11-11-11-11-11-11-11------------------|
A:-7--7-7-7-7-7-7-7--7--7-7-7-7-7-7-7--9--9--9--9--9--9--9--9--9--9-9-9-9-9-9-9-|
E:-------------------5--5-5-5-5-5-5-5--------------------------7--7-7-7-7-7-7-7-|

e:-----------------------------------------------------------|
B:-----------------------------------------------------------|
G:-----------------------------------------------------------|
D:-9--9-9-9-9-9-9-9--------------------11-11-11--13-11-13-11-|
A:-7--7-7-7-7-7-7-7--7--7-7-7-7-7-7-7--9--9--9---11-9--11-9--|
E:-------------------5--5-5-5-5-5-5-5------------------------|

e:---------------------------------------------------------|
B:---------------------------------------------------------|
G:---------------------------------------------------------|
D:-9-9----------9-9----------9-9---------------------------|
A:-7-7--7--7-7--7-7--7--7-7--7-7--7--7-7--7/9--9-9-9-9-9-9-|
E:------5--5-5-------5--5-5-------5--5-5--5/7--7-7-7-7-7-7-|

e:------------------------------------------------------------|
B:------------------------------------------------------------|
G:------------------------------------------------------------|
D:-9----------------------------------------------------------|
A:-7----------------------------------------------------------|
E:------------------------------------------------------------|





hillo son mex

02/02/13
comments
We did not receive enough feedback on this tab! Please rate:
print report bad tab
1 2 3 4 5
I want to post or [tab]
guest
You may want to rate the tab now too:
select rating
Please do not post tabs as comments. Select "correction" instead!