Oops, an error
Loading. Please wait.

Get Out Of My Life Tab

1,687 views 9 this week
1 commentread comment
1 2 3 4 5
accurate
x 1
Autoscroll
+/-
esc
set tempo
stop
Contributor
Difficulty
intermediate
Hey! There's an official Ultimate Guitar app which is ideal
for learning songs when you're away from computer. Get the app
WARNING: You are trying to view
                                    content from Ultimate-Guitar.com
                                    in an unauthorized application,
                                    which is prohibited.

                                    Please use an official Ultimate
                                    Guitar Tabs application for iPhone,
                                    iPad or Android to access legitimate
                                    chords, guitar, bass, and drum tabs
                                    from Ultimate-Guitar.com database.

                                    Type "ultimate guitar tabs" in Apple
                                    App Store's or Android Market's
                                    search to find the application.
-------------------------------------------------------------------------------
			     Get Out of My Life - Rebel Meets Rebel
-------------------------------------------------------------------------------

Tuning - C# F# B E G# C#


Note: I don't think it's 100% accurate, but I did not notice a full tab, so figured I would throw one up.

Guitar I
          PM----| ~~~~~~PM| ~~~~~~
|--------------------------------------|
|--------------------------------------|
|--------------------------------------|
|--------------------------------------|
|----------------5-(5)-----5-(5)-------|
|--0-(0)-0-5-6-7-------6-7-------7-6-5-|


        PM----| ~~~~~~PM  PM            x3          PM--| ~~~~~~PM  PM
|----------------------------------------||---------------------------------|
|----------------------------------------||---------------------------------|
|----------------------------------------||---------------------------------|
|----------------------------------------||---------------------------------|
|---------------5-(5)---7---5b5.5--------||---------------5-(5)---7---5b7===|
|-0-(0)-0-5-6-7-------7---7-------7-6-5--||-0-(0)-0-5-6-7-------7---7-------|


 Verse
|---------------------------------|-------------------------------|
|---------------------------------|-------------------------------|
|---------------------------------|-------------------------------|
|---------------------------------|-------------------------------|
|-(5)------(5)r-------------------|-------------------------------|
|---------------------------------|-------------------------------|

 Guitar II
|--3s5-5-5--5---x-3-3s5-5-5-5-x-3-|-3s5-5-5-5-x-3-3s5-5-5-5s6-6-6-|
|--3s5-5-5--5---x-3-3s5-5-5-5-x-3-|-3s5-5-5-5-x-3-3s5-5-5-5s6-6-6-|
|--4s6-6-6--6---x-4-4s6-6-6-6-x-4-|-4s6-6-6-6-x-4-4s6-6-6-6s7-7-7-|
|--5s7-7-7--7---x-5-5s7-7-7-7-x-5-|-5s7-7-7-7-x-5-5s7-7-7-7s8-8-8-|
|---------------------------------|-------------------------------|
|---------------------------------|-------------------------------|


        PM----| ~~~~~~PM| ~~~~~~                PM--| ~~~~~~PM  PM
|-------------------------------------|---------------------------------|
|-------------------------------------|---------------------------------|
|-------------------------------------|---------------------------------|
|-------------------------------------|---------------------------------|
|---------------5-(5)-----5-(5)-------|---------------5-(5)---7---5b7===|
|-0-(0)-0-5-6-7-------6-7-------7-6-5-|-0-(0)-0-5-6-7-------7---7-------|


|-------------------------------|-----------------------------|
|-------------------------------|-----------------------------|
|-------------------------------|-----------------------------|
|-------------------------------|-----------------------------|
|-(5)------(5)r-----------------|-----------------------------|
|-------------------------------|-----------------------------|

Guitar II

|--3s5-5-5--5---3-3s5-5-5-5-3---|-3s5-5-5-5-5-5-5-3-3-3-3-3-3-|
|--3s5-5-5--5---3-3s5-5-5-5-3-x-|-3s5-5-5-5-5-5-5-3-3-3-3-3-3-|
|--4s6-6-6--6---4-4s6-6-6-6-4-x-|-4s6-6-6-6-6-6-6-4-4-4-4-4-4-|
|--5s7-7-7--7---5-5s7-7-7-7-5-x-|-5s7-7-7-7-7-7-7-5-5-5-5-5-5-|
|-------------------------------|-----------------------------|
|-------------------------------|-----------------------------|


        PM----| ~~~~~~PM| ~~~~~~                PM--| ~~~~~~PM  PM
|-------------------------------------|---------------------------------|
|-------------------------------------|---------------------------------|
|-------------------------------------|---------------------------------|
|-------------------------------------|---------------------------------|
|---------------5-(5)-----5-(5)-------|---------------5-(5)---7---5b7===|
|-0-(0)-0-5-6-7-------6-7-------7-6-5-|-0-(0)-0-5-6-7-------7---7-------|

|---------------------------------|-------------------------------|
|---------------------------------|-------------------------------|
|---------------------------------|-------------------------------|
|---------------------------------|-------------------------------|
|-(5)------(5)r-------------------|-------------------------------|
|---------------------------------|-------------------------------|
|
Guitar II
|--3s5-5-5--5---x-3-3s5-5-5-5-x-3-|-3s5-5-5-5-x-3-3s5-5-5-5s6-6-6-|
|--3s5-5-5--5---x-3-3s5-5-5-5-x-3-|-3s5-5-5-5-x-3-3s5-5-5-5s6-6-6-|
|--4s6-6-6--6---x-4-4s6-6-6-6-x-4-|-4s6-6-6-6-x-4-4s6-6-6-6s7-7-7-|
|--5s7-7-7--7---x-5-5s7-7-7-7-x-5-|-5s7-7-7-7-x-5-5s7-7-7-7s8-8-8-|
|---------------------------------|-------------------------------|
|---------------------------------|-------------------------------|


        PM----| ~~~~~~PM| ~~~~~~                PM--| ~~~~~~PM  PM
|-------------------------------------|---------------------------------|
|-------------------------------------|---------------------------------|
|-------------------------------------|---------------------------------|
|-------------------------------------|---------------------------------|
|---------------5-(5)-----5-(5)-------|---------------5-(5)---7---5b7===|
|-0-(0)-0-5-6-7-------6-7-------7-6-5-|-0-(0)-0-5-6-7-------7---7-------|

|-----------------------------------|
|-----------------------------------|
|-----------------------------------|
|-----------------------------------|
|-(5)------(5)r---------------------|
|-----------------------------------|

| Gtr II
|--5s7-7-7--7---5-5-5s7-7-7-7---5---|
|--5s7-7-7--7---5-5-5s7-7-7-7-x-5-x-|
|--6s8-8-8--8---6-6-6s8-8-8-8-x-6-x-|
|--7s9-9-9--9---7-7-7s9-9-9-9-x-7-x-|
|-----------------------------------|
|-----------------------------------|
                                                            PM------|           
|---------------------------------------------|-----------------------------|
|---------------------------------------------|-----------------------------|
|---------------------------------------------|-----------------------------|
|---------------------------------------------|-----------------------------|
|---------------------------------------------|---------5b7-----------------|
|---------------------------------------------|-12\---------7-6-3b4-5-3b5---|

|-7s=8--8--8--8--8--8-10-10-10-10-10-10-10-10-|-12--------------------------|
|-7s=8--8--8--8--8--8-10-10-10-10-10-10-10-10-|-12--------------------------|
|-8s=9--9--9--9--9--9-11-11-11-11-11-11-11-11-|-13--------------------------|
|-9s10-10-10-10-10-10-12-12-12-12-12-12-12-12-|-14--------------------------|
|---------------------------------------------|-----------------------------|
|---------------------------------------------|-----------------------------|


Chorus
         PM----| ~~~~~~PM| ~~~~~~
|--------------------------------------|
|--------------------------------------|
|--------------------------------------|
|--------------------------------------|
|----------------5-(5)-----5-(5)-------|
|--0-(0)-0-5-6-7-------6-7-------7-6-5-|


        PM----| ~~~~~~PM  PM 		3x
|----------------------------------------|
|----------------------------------------|
|----------------------------------------|
|----------------------------------------|
|---------------5-(5)---7---5b5.5--------|
|-0-(0)-0-5-6-7-------7---7-------7-6-5--|


        PM----| ~~~~~~PM| ~~~~~~                PM--| ~~~~~~PM  PM
|-------------------------------------|--------------------------------|
|-------------------------------------|--------------------------------|
|-------------------------------------|--------------------------------|
|-------------------------------------|--------------------------------|
|---------------5-(5)-----5-(5)-------|---------------5-(5)---7---5b7--|
|-0-(0)-0-5-6-7-------6-7-------7-6-5-|-0-(0)-0-5-6-7-------7---7------|


                                                      ~~~~~~~~~~~
|--------------------------------------------------------|-----------------|
|--------------------------------------------15b17==(15)-|-(15)r-----------|
|-14b16-12-14b16==(14)r-12-14p12-------12h14-------------|-----------------|
|--------------------------------12h14-------------------|-----------------|
|--------------------------------------------------------|-----------------|
|--------------------------------------------------------|-----------------|

|--------------------------------------------------------|-----------------|
|---------------------------------------------3b5====(3)-|--(3)r-----------|
|--2b4---0--2b4====(2)r--0--2p=0--------0--2-------------|------------/6\--|
|---------------------------------0--2-------------------|-----------------|
|--------------------------------------------------------|-----------------|
|--------------------------------------------------------|-----------------|


 Verse
|-----------------------------|-------------------------------|
|-----------------------------|-------------------------------|
|-----------------------------|-------------------------------|
|-----------------------------|-------------------------------|
|-----------------------------|-------------------------------|
|-----------------------------|-------------------------------|

Guitar II
|-3s5-5-5-5-x-3-3s5-5-5-5-x-3-|-3s5-5-5-5-x-3-3s5-5-5-5s6-6-6-|
|-3s5-5-5-5-x-3-3s5-5-5-5-x-3-|-3s5-5-5-5-x-3-3s5-5-5-5s6-6-6-|
|-4s6-6-6-6-x-4-4s6-6-6-6-x-4-|-4s6-6-6-6-x-4-4s6-6-6-6s7-7-7-|
|-5s7-7-7-7-x-5-5s7-7-7-7-x-5-|-5s7-7-7-7-x-5-5s7-7-7-7s8-8-8-|
|-----------------------------|-------------------------------|
|-----------------------------|-------------------------------|


        PM----| ~~~~~~PM-| ~~~~~~                PM--| ~~~~~~PM  PM
|-------------------------------------|---------------------------------|
|-------------------------------------|---------------------------------|
|-------------------------------------|---------------------------------|
|-------------------------------------|---------------------------------|
|---------------5-(5)-----5-(5)-------|---------------5-(5)---7---5b7===|
|-0-(0)-0-5-6-7-------6-7-------7-6-5-|-0-(0)-0-5-6-7-------7---7-------|


|-------------------------------|-----------------------------|
|-------------------------------|-----------------------------|
|-------------------------------|-----------------------------|
|-------------------------------|-----------------------------|
|-(5)------(5)r-----------------|-----------------------------|
|-------------------------------|-----------------------------|

 Gtr II

|--3s5-5-5--5---3-3s5-5-5-5-3---|-3s5-5-5-5-5-5-5-3-3-3-3-3-3-|
|--3s5-5-5--5---3-3s5-5-5-5-3-x-|-3s5-5-5-5-5-5-5-3-3-3-3-3-3-|
|--4s6-6-6--6---4-4s6-6-6-6-4-x-|-4s6-6-6-6-6-6-6-4-4-4-4-4-4-|
|--5s7-7-7--7---5-5s7-7-7-7-5-x-|-5s7-7-7-7-7-7-7-5-5-5-5-5-5-|
|-------------------------------|-----------------------------|
|-------------------------------|-----------------------------|



        PM----| ~~~~~~PM| ~~~~~~                PM--| ~~~~~~PM  PM
|-------------------------------------|---------------------------------|
|-------------------------------------|---------------------------------|
|-------------------------------------|---------------------------------|
|-------------------------------------|---------------------------------|
|---------------5-(5)-----5-(5)-------|---------------5-(5)---7---5b7===|
|-0-(0)-0-5-6-7-------6-7-------7-6-5-|-0-(0)-0-5-6-7-------7---7-------|


|---------------------------------|-------------------------------|
|---------------------------------|-------------------------------|
|---------------------------------|-------------------------------|
|---------------------------------|-------------------------------|
|-(5)------(5)r-------------------|-------------------------------|
|---------------------------------|-------------------------------|

 Gtr II

|--3s5-5-5--5---x-3-3s5-5-5-5-x-3-|-3s5-5-5-5-x-3-3s5-5-5-5s6-6-6-|
|--3s5-5-5--5---x-3-3s5-5-5-5-x-3-|-3s5-5-5-5-x-3-3s5-5-5-5s6-6-6-|
|--4s6-6-6--6---x-4-4s6-6-6-6-x-4-|-4s6-6-6-6-x-4-4s6-6-6-6s7-7-7-|
|--5s7-7-7--7---x-5-5s7-7-7-7-x-5-|-5s7-7-7-7-x-5-5s7-7-7-7s8-8-8-|
|---------------------------------|-------------------------------|
|---------------------------------|-------------------------------|



        PM----| ~~~~~~PM| ~~~~~~                PM--| ~~~~~~PM  PM
|-------------------------------------|---------------------------------|
|-------------------------------------|---------------------------------|
|-------------------------------------|---------------------------------|
|-------------------------------------|---------------------------------|
|---------------5-(5)-----5-(5)-------|---------------5-(5)---7---5b7===|
|-0-(0)-0-5-6-7-------6-7-------7-6-5-|-0-(0)-0-5-6-7-------7---7-------|



|-----------------------------------|
|-----------------------------------|
|-----------------------------------|
|-----------------------------------|
|-(5)------(5)r---------------------|
|-----------------------------------|

Guitar II

|--5s7-7-7--7---5-5-5s7-7-7-7---5---|
|--5s7-7-7--7---5-5-5s7-7-7-7-x-5-x-|
|--6s8-8-8--8---6-6-6s8-8-8-8-x-6-x-|
|--7s9-9-9--9---7-7-7s9-9-9-9-x-7-x-|
|-----------------------------------|
|-----------------------------------|


                                                            PM------|
|---------------------------------------------|-----------------------------|
|---------------------------------------------|-----------------------------|
|---------------------------------------------|-----------------------------|
|---------------------------------------------|-----------------------------|
|---------------------------------------------|---------5b7-----------------|
|---------------------------------------------|-12\---------7-6-3b4-5-3b5---|

Gtr II
|-7s=8--8--8--8--8--8-10-10-10-10-10-10-10-10-|-12--------------------------|
|-7s=8--8--8--8--8--8-10-10-10-10-10-10-10-10-|-12--------------------------|
|-8s=9--9--9--9--9--9-11-11-11-11-11-11-11-11-|-13--------------------------|
|-9s10-10-10-10-10-10-12-12-12-12-12-12-12-12-|-14--------------------------|
|---------------------------------------------|-----------------------------|
|---------------------------------------------|-----------------------------|


   Chorus
          PM----| ~~~~~~PM| ~~~~~~
|--------------------------------------|
|--------------------------------------|
|--------------------------------------|
|--------------------------------------|
|----------------5-(5)-----5-(5)-------|
|--0-(0)-0-5-6-7-------6-7-------7-6-5-|


        PM----| ~~~~~~PM  PM		x3
|----------------------------------------|
|----------------------------------------|
|----------------------------------------|
|----------------------------------------|
|---------------5-(5)---7---5b5.5--------|
|-0-(0)-0-5-6-7-------7---7-------7-6-5--|


        PM----| ~~~~~~PM| ~~~~~~                PM--| ~~~~~~PM  PM
|-------------------------------------|--------------------------------|
|-------------------------------------|--------------------------------|
|-------------------------------------|--------------------------------|
|-------------------------------------|--------------------------------|
|---------------5-(5)-----5-(5)-------|---------------5-(5)---7---5b7--|
|-0-(0)-0-5-6-7-------6-7-------7-6-5-|-0-(0)-0-5-6-7-------7---7------|

                                                    ~~~~~~~~~~
|--------------------------------------------------------|---------|
|--------------------------------------------15b17==(15)-|-(15)----|
|-14b16-12-14b16==(14)r-12-14p12-------12h14-------------|---------|
|--------------------------------12h14-------------------|---------|
|--------------------------------------------------------|---------|
|--------------------------------------------------------|---------|
                                                    ~~~~~~~~~~
|--------------------------------------------------------|---------|
|---------------------------------------------3b5====(3)-|--(3)----|
|--2b4---0--2b4====(2)r--0--2p=0--------0--2-------------|---------|
|---------------------------------0--2-------------------|---------|
|--------------------------------------------------------|---------|
|--------------------------------------------------------|---------|


 Bridge
|----------------------|----------|-----------------------------|
|-(15)r-(15)\----------|----------|-----------------------------|
|----------------------|----------|-----------------------------|
|----------------------|----------|-----------------------------|
|----------------------|----------|-----------------------------|
|----------------------|----------|-6-5-3-6-5-3-6-5-3-6-5-3b3.5-|

    ~~~~~
|----------------------|----------|-----------------------------|
|--(3)r----------------|----------|-----------------------------|
|----------------------|----------|-----------------------------|
|----------------------|----------|-----------------------------|
|----------------------|----------|-----------------------------|
|----------------------|----------|-6-5-3-6-5-3-6-5-3-6-5-3b3.5-|

|------------------|------------------------|
|---------8--------|-12---------------------|
|---------9-----14-|-12---------------------|
|-----------/14----|------------------------|
|------------------|------------------------|
|------------------|------------------------|

|------------------|------------------------|
|------------------|------------------------|
|------------------|------------------------|
|------------------|------------------------|
|------------------|------------------------|
|-0----------------|-(0)----6-5-3-6-5-3b3.5-|

|-------------------17-------|-15-----------(15)--------|
|-(12)----x------------------|--x------------------x-x--|
|-(12)------xS18-18----18-18-|-16-----------(16)---x-x--|
|----------------------------|---------------------x-x--|
|----------------------------|--------------------------|
|----------------------------|--------------------------|


|----------------------------|--------------------------|
|----------------------------|--------------------------|
|----------------------------|--------------------------|
|----------------------------|--------------------------|
|----------------------------|--------------------------|
|---0------------------------|-(0)----6-5-3---6--5-3----|


 Solo                                 ~~~~~
|-----------------------------------------------------|
|-15b17==(15)r==15b17====(15)---(15)r-----------15p12-|
|-----------------------------------------------------|
|-----------------------------------------------------|
|-----------------------------------------------------|
|-----------------------------------------------------|

                                                    ~~~
|--------------------------------------------------------|
|-15-15-13-12--------------------------------------------|
|-------------15p14p==12-14p12------14----13-------------|
|--------------------------------14----14----14----14----|
|-----------------------------------------------14-------|
|--------------------------------------------------------|

                                                        ~~~
|--------------------------------------------------------------|
|-x-15p12h15p12h15-15-13-12------------------------------------|
|-x-------------------------15p14p12-14p12----14---------------|
|------------------------------------------14----14-12-14------|
|--------------------------------------------------------------|
|--------------------------------------------------------------|
                                                    ~~
|------------------------------------------------------------|
|-x-15p12h15p12----15p12-12----------------------------------|
|-x-------------15----------15p14p12-14-12----12-------------|
|------------------------------------------14----14----------|
|---------------------------------------------------14-------|
|------------------------------------------------------------|

|-------------------------------20-----------------20-----------------|
|-20-------------------------------20-20-----(20)-----20-20-----(20)--|
|-19b21r19b21==19---(19)r-------------19b22==(19)r-------19b21==(19)r-|
|---------------------------------------------------------------------|
|---------------------------------------------------------------------|
|---------------------------------------------------------------------|
                 ~~~~          ~~~~~
|-20---------------------------------------------|
|----20-20-----(20)---(20)---(20)----------------|
|-------19b21==(19)---(19)---(19)r------------x--|
|----------------------------------------x\---x--|
|------------------------------------------------|
|------------------------------------------------|

|--------------------------------------------------------------|
|-17pb18r(17)b18-(17)b20====(17)---(17)---17-17---17---17---17-|
|--------------------------------------------------------------|
|--------------------------------------------------------------|
|--------------------------------------------------------------|
|--------------------------------------------------------------|
                                   ~~
|----------------------------------------------------|
|-(17)-----(17)r(17)p15h17p15b17==15-------(15)r-----|
|----------------------------------------------------|
|------------------------------------------------x-x-|
|----------------------------------------------------|
|----------------------------------------------------|
                                               ~~~~~~~~
|---------------------------------------------------------------|
|----16----17p16----18p16----19p16----19b22==(19)-(19)-(19)r\---|
|-16----16-------17-------17-------16---------------------------|
|---------------------------------------------------------------|
|---------------------------------------------------------------|
|---------------------------------------------------------------|
                                            ~~~~~~~~
|---------------------------------------------------------------|
|-----4-----5p=4-----6p=4-----7p=4-----7b10===(7)--(7)--(7)r\---|
|--4-----4--------4--------4--------4---------------------------|
|---------------------------------------------------------------|
|---------------------------------------------------------------|
|---------------------------------------------------------------|

|----------------------------------------------------------------------|
|-----17---------20b24=====(20)r--------19---------22b25=====(22)r-----|
|-/17------17-----------------------/19------19------------------------|
|----------------------------------------------------------------------|
|----------------------------------------------------------------------|
|----------------------------------------------------------------------|

|----------------------------------------------------------------------|
|------5----------8b12======(8)r---------7---------10b13======10r------|
|--/5-------5------------------------/7-------7------------------------|
|----------------------------------------------------------------------|
|----------------------------------------------------------------------|
|----------------------------------------------------------------------|

|-22b24===(22)--(22)---------|
|-19b20===(19)--(19)---------|
|-11b12===(11)--(11)---------|
|----------------------------|
|----------------------------|
|----------------------------|

|----------------------------|
|----------------------------|
|----------------------------|
|----------------------------|
|----------------------------|
|-12\-----------------(12)-0-|

|-(22)r---------------------------------------22b25==(22)r-|
|-(19)r---------------------------------------23b26==(23)r-|
|-(11)r---------------------------------------15b18==(15)r-|
|----------------------------------------------------------|
|----------------------------------------------------------|
|----------------------------------------------------------|
|
|                                                      
|----------------------------------------------------------|
|---------------------------------------------15b17==(15)r-|
|--14b16-12-14b16==(14)r-12-14p12-------12h14--------------|
|---------------------------------12h14--------------------|
|----------------------------------------------------------|
|----------------------------------------------------------|

|----------------------------------------------------------|
|----------------------------------------------3b5====(3)r-|
|---2b4---0--2b4====(2)r--0--2p=0--------0--2--------------|
|----------------------------------0--2--------------------|
|----------------------------------------------------------|
|----------------------------------------------------------|


Outro
         PM----| ~~~~  PM-| ~~~~~~
|--------------------------------------|
|--------------------------------------|
|--------------------------------------|
|--------------------------------------|
|----------------5-(5)-----5-(5)-------|
|--0-(0)-0-5-6-7-------6-7-------7-6-5-|


        PM----| ~~~~~ PM  PM           3x
|----------------------------------------|
|----------------------------------------|
|----------------------------------------|
|----------------------------------------|
|---------------5-(5)---7---5b5.5--------|
|-0-(0)-0-5-6-7-------7---7-------7-6-5--|


        PM----| ~~~~~~PM| ~~~~~~
|-------------------------------------|
|-------------------------------------|
|-------------------------------------|
|-------------------------------------|
|---------------5-(5)-----5-(5)-------|
|-0-(0)-0-5-6-7-------6-7-------7-6-5-|

                                              ~~
|------------------------------------------------|
|------------------------------------------------|
|-14b16-12-14b16==(14)r-12-14p12-----------------|
|--------------------------------14p12-----------|
|--------------------------------------14p10-----|
|--------------------------------------------12--|

|------------------------------------------------|
|------------------------------------------------|
|--2b4---0--2b4====(2)r--0--2p=0-----------------|
|---------------------------------2--0-----------|
|---------------------------------------2-----2--|
|------------------------------------------3--0--|

                                ~~~                ~~
|---------0-------------------------|-----------------|-------------|
|-15b17--15-------------------------|-----------------|-------------|
|------------14b15r(14)-----12------|-----------------|-------------|
|------------------------------14---|-12tr14------12--|-14----------|
|-----------------------------------|-----------------|-------------|
|-----------------------------------|-----------------|-------------|
|
			  ~~~~~		  ~~~~~
|--0------0-------------------------|-----------------|-------------|
|-/5------3-------------------------|-----------------|-------------|
|-------------2b4r==(2)p0-----------|-----------------|-------------|
|-------------------------2----(2)--|--0tr2--------0--|--2----------|
|-----------------------------------|-----------------|-------------|
|-----------------------------------|-----------------|-------------|



comments
We did not receive enough feedback on this tab! Please rate:
print report bad tab
1 2 3 4 5
1 comment total.
+1 reply
XstringXpickerX wrote on November 25 2006, 03:31 pm

i gotcha thanx for the advice

I want to post or [tab]
guest
You may want to rate the tab now too:
select rating
Please do not post tabs as comments. Select "correction" instead!