Oops, an error
Loading. Please wait.

Condor Tab

by Red
2,363 views 3 this week
10 commentsread comments
1 2 3 4 5
excellent!
x 2
Autoscroll
+/-
esc
set tempo
stop
Contributor
Hey! There's an official Ultimate Guitar app which is ideal
for learning songs when you're away from computer. Get the app
WARNING: You are trying to view
                                    content from Ultimate-Guitar.com
                                    in an unauthorized application,
                                    which is prohibited.

                                    Please use an official Ultimate
                                    Guitar Tabs application for iPhone,
                                    iPad or Android to access legitimate
                                    chords, guitar, bass, and drum tabs
                                    from Ultimate-Guitar.com database.

                                    Type "ultimate guitar tabs" in Apple
                                    App Store's or Android Market's
                                    search to find the application.
RED
Condor - The Unfinished Song
Tabbed by U B the band
Tuning Bb F Bb Eb G C

Legend
/-slide up

This song is an Innocence and Instinct - ARG exclusive. If you completed REDs
Online Puzzle Game, you got this song and other exclusive “treasures”. PEACE.

Intro: Guitar 1 (Mild Distortion)
 C|---------------------------------------------------------------------------|
 G|---------------------------------------------------------------------------|
Eb|--9---9--9--9---/12--12-12--12-12-12----9---9--9--9---/12--12-12--12-12-12-|
Bb|--x---x--x--x-----x---x--x---x--x--x----x---x--x--x-----x---x--x---x--x--x-|
 F|--7---7--7--7---/10--10-10--10-10-10----7---7--7--7---/10--10-10--10-10-10-|
Bb|---------------------------------------------------------------------------|

Intro: Guitar 1 (Mild Distortion)
 C|---------------------------------------------------------------------------|
 G|---------------------------------------------------------------------------|
Eb|--14--14-14-14--/16--16-16--16-16-16----16--16-16-16---16--16-16--16-16-16-|
Bb|---x---x--x--x----x---x--x---x--x--x-----x---x--x--x----x---x--x---x--x--x-|
 F|--12--12-12-12--/14--14-14--14-14-14----14--14-14-14---14--14-14--14-14-14-|
Bb|---------------------------------------------------------------------------|

Intro: Guitar 1 (Mild Distortion)
 C|---------------------------------------------------------------------------|
 G|---------------------------------------------------------------------------|
Eb|--7---7--7--7---/10--10-10--10-10-10----7---7--7--7---/10--10-10--10-10-10-|
Bb|--x---x--x--x----x---x--x---x--x--x-----x---x--x--x----x---x--x---x--x--x--|
 F|--5---5--5--5---/8---8--8---8--8--8-----5---5--5--5---/8---8--8---8--8--8--|
Bb|---------------------------------------------------------------------------|
                                                                              |
Intro: Guitar 2 (Distorted)                                                   |
 C|---------------------------------------------------------------------------|
 G|---------------------------------------------------------------------------|
Eb|---------------------------------------------------------------------------|
Bb|--8---8----8---8----8---8----8---8------0---0----0---0----0---0----0---0---|
 F|--8---8----8---8----8---8----8---8------0---0----0---0----0---0----0---0---|
Bb|--8---8----8---8----8---8----8---8------0---0----0---0----0---0----0---0---|

Intro: Guitar 1 (Mild Distortion)
 C|---------------------------------------------------------------------------|
 G|---------------------------------------------------------------------------|
Eb|--12--12-12-12--/14--14-14--14-14-14----14--14-14-14---14--14-14--14-14-14-|
Bb|---x---x--x--x----x---x--x---x--x--x-----x---x--x--x----x---x--x---x--x--x-|
 F|--10--10-10-10--/12--12-12--12-12-12----12--12-12-12---12--12-12--12-12-12-|
Bb|---------------------------------------------------------------------------|
                                                                              |
Intro: Guitar 2 (Distorted)                                                   |
 C|---------------------------------------------------------------------------|
 G|---------------------------------------------------------------------------|
Eb|---------------------------------------------------------------------------|
Bb|--3---3----3---3----3---3----3---3------2---2----2---2----2---2----2---2---|
 F|--3---3----3---3----3---3----3---3------2---2----2---2----2---2----2---2---|
Bb|--3---3----3---3----3---3----3---3------2---2----2---2----2---2----2---2---|

Intro: Guitars 1 & 2 (Distorted) PLAY 2 TIMES
 C|---------------------------------------------------------------------------|
 G|---------------------------------------------------------------------------|
Eb|---------------------------------------------------------------------------|
Bb|---------------------------------------------------------------------------|
 F|---------------------------------------------------------------------------|
Bb|--0-4-3-0-3-0-3-4--0-4-3-0-8-5-1-4--0-4-3-0-3-0-3-4--0-4-3-0-8-5-1-4-------|

Verse 1: Guitar 1 (Distorted)
 C|---------------------------------------------------------------------------|
 G|---------------------------------------------------------------------------|
Eb|---------------------------------------------------------------------------|
Bb|--0-0-0-0-0-0-0-0-0-0-0-0-0-0-0-0-0-0-0-0-0-0-0-0-0-0-0-0-0-0-0-0-0-0-0-0--|
 F|---------------------------------------------------------------------------|
Bb|---------------------------------------------------------------------------|
                                                                              |
Verse 1: Guitar 3 (Distorted with Flanger)                                    |
 C|---------------------------------------------------------------------------|
 G|---------------------------------------------------------------------------|
Eb|---------------19-----14------15------14----------------14------12------11-|
Bb|---------------------------------------------------------------------------|
 F|---------------------------------------------------------------------------|
Bb|---------------------------------------------------------------------------|

Verse 1: Guitar 1 (Distorted)
 C|---------------------------------------------------------------------------|
 G|---------------------------------------------------------------------------|
Eb|---------------------------------------------------------------------------|
Bb|--0-0-0-0-0-0-0-0-0-0-0-0-0-0-0-0-0-0-0-0-0-0-0-0-0-0-0-0-0-0-0-0-0-0-0-0--|
 F|---------------------------------------------------------------------------|
Bb|---------------------------------------------------------------------------|
                                                                              |
Verse 1: Guitar 2 (Distorted)                                                 |
 C|---------------------------------------------------------------------------|
 G|---------------------------------------------------------------------------|
Eb|---------------------------------------------------------------------------|
Bb|-------------------------------------------------8--8--8--8--5--5--5--5----|
 F|-------------------------------------------------8--8--8--8--5--5--5--5----|
Bb|-------------------------------------------------8--8--8--8--5--5--5--5----|
                                                                              |
Verse 1: Guitar 3 (Distorted with Flanger)                                    |
 C|---------------------------------------------------------------------------|
 G|---------------------------------------------------------------------------|
Eb|---------------19-----14------15------14---------------------12------------|
Bb|---------------------------------------------------------------------------|
 F|---------------------------------------------------------------------------|
Bb|---------------------------------------------------------------------------|

Verse 1: Guitar 1 (Distorted)
 C|---------------------------------------------------------------------------|
 G|---------------------------------------------------------------------------|
Eb|---------------------------------------------------------------------------|
Bb|--0-0-0-0-0-0-0-0-0-0-0-0-0-0-0-0-0-0-0-0-0-0-0-0-0-0-0-0-0-0-0-0-0-0-0-0--|
 F|---------------------------------------------------------------------------|
Bb|---------------------------------------------------------------------------|
                                                                              |
Verse 1: Guitar 2 (Distorted)                                                 |
 C|---------------------------------------------------------------------------|
 G|---------------------------------------------------------------------------|
Eb|---------------------------------------------------------------------------|
Bb|---------------------------------------------------------------------------|
 F|---------------------------------------------------------------------------|
Bb|--0-4-3-0-3-0---------------------8-5-1-4--0-4-3-0-3-0------8-5-1-4--------|
                                                                              |
Verse 1: Guitar 3 (Distorted with Flanger)                                    |
 C|---------------------------------------------------------------------------|
 G|---------------------------------------------------------------------------|
Eb|--11-----------19-----14------15------14----------------14------12---------|
Bb|---------------------------------------------------------------------------|
 F|---------------------------------------------------------------------------|
Bb|---------------------------------------------------------------------------|

Verse 1: Guitar 1 (Distorted)
 C|---------------------------------------------------------------------------|
 G|---------------------------------------------------------------------------|
Eb|---------------------------------------------------------------------------|
Bb|--0-0-0-0-0-0-0-0-0-0-0-0-0-0-0-0-0-0-0-0-0-0-0-0-0-0-0-0-0-0-0-0-0-0-0-0--|
 F|---------------------------------------------------------------------------|
Bb|---------------------------------------------------------------------------|
                                                                              |
Verse 1: Guitar 2 (Distorted)                                                 |
 C|---------------------------------------------------------------------------|
 G|---------------------------------------------------------------------------|
Eb|---------------------------------------------------------------------------|
Bb|-------------------------------------------------8--8--8--8--5--5--5--5----|
 F|-------------------------------------------------8--8--8--8--5--5--5--5----|
Bb|--0-4-3-0-3-0---------------------8-5-1-4--------8--8--8--8--5--5--5--5----|
                                                                              |
Verse 1: Guitar 3 (Distorted with Flanger)                                    |
 C|---------------------------------------------------------------------------|
 G|---------------------------------------------------------------------------|
Eb|--11-----------19-----14------15------14---------------------12------------|
Bb|---------------------------------------------------------------------------|
 F|---------------------------------------------------------------------------|
Bb|---------------------------------------------------------------------------|

Chorus: Guitar 1 (Mild Distortion) PLAY CHORUS 2 TIMES
 C|---------------------------------------------------------------------------|
 G|---------------------------------------------------------------------------|
Eb|--7---7--7--7---/10--10-10--10-10-10----7---7--7--7---/10--10-10--10-10-10-|
Bb|--x---x--x--x----x---x--x---x--x--x-----x---x--x--x----x---x--x---x--x--x--|
 F|--5---5--5--5---/8---8--8---8--8--8-----5---5--5--5---/8---8--8---8--8--8--|
Bb|---------------------------------------------------------------------------|
                                                                              |
Chorus: Guitar 2 (Distorted)                                                  |
 C|---------------------------------------------------------------------------|
 G|---------------------------------------------------------------------------|
Eb|---------------------------------------------------------------------------|
Bb|--8---8----8---8----8---8----8---8------0---0----0---0----0---0----0---0---|
 F|--8---8----8---8----8---8----8---8------0---0----0---0----0---0----0---0---|
Bb|--8---8----8---8----8---8----8---8------0---0----0---0----0---0----0---0---|

Chorus: Guitar 1 (Mild Distortion)
 C|---------------------------------------------------------------------------|
 G|---------------------------------------------------------------------------|
Eb|--12--12-12-12--/14--14-14--14-14-14----14--14-14-14---14--14-14--14-14-14-|
Bb|---x---x--x--x----x---x--x---x--x--x-----x---x--x--x----x---x--x---x--x--x-|
 F|--10--10-10-10--/12--12-12--12-12-12----12--12-12-12---12--12-12--12-12-12-|
Bb|---------------------------------------------------------------------------|
                                                                              |
Chorus: Guitar 2 (Distorted)                                                  |
 C|---------------------------------------------------------------------------|
 G|---------------------------------------------------------------------------|
Eb|---------------------------------------------------------------------------|
Bb|--3---3----3---3----3---3----3---3------2---2----2---2----2---2----2---2---|
 F|--3---3----3---3----3---3----3---3------2---2----2---2----2---2----2---2---|
Bb|--3---3----3---3----3---3----3---3------2---2----2---2----2---2----2---2---|

Post Chorus: Guitars 1 & 2 (Distorted) PLAY 1 TIME
 C|---------------------------------------------------------------------------|
 G|---------------------------------------------------------------------------|
Eb|---------------------------------------------------------------------------|
Bb|---------------------------------------------------------------------------|
 F|---------------------------------------------------------------------------|
Bb|--0-4-3-0-3-0-3-4--0-4-3-0-8-5-1-4--0-4-3-0-3-0-3-4--0-4-3-0-8-5-1-4-------|

Verse 2: Guitar 1 (Distorted)
 C|---------------------------------------------------------------------------|
 G|---------------------------------------------------------------------------|
Eb|---------------------------------------------------------------------------|
Bb|--0-0-0-0-0-0-0-0-0-0-0-0-0-0-0-0-0-0-0-0-0-0-0-0-0-0-0-0-0-0-0-0-0-0-0-0--|
 F|---------------------------------------------------------------------------|
Bb|---------------------------------------------------------------------------|
                                                                              |
Verse 2: Guitar 2 (Distorted)                                                 |
 C|---------------------------------------------------------------------------|
 G|---------------------------------------------------------------------------|
Eb|---------------------------------------------------------------------------|
Bb|---------------------------------------------------------------------------|
 F|---------------------------------------------------------------------------|
Bb|--0-4-3-0-3-0---------------------8-5-1-4--0-4-3-0-3-0------8-5-1-4--------|
                                                                              |
Verse 2: Guitar 3 (Distorted with Flanger)                                    |
 C|---------------------------------------------------------------------------|
 G|---------------------------------------------------------------------------|
Eb|--11-----------19-----14------15------14----------------14------12---------|
Bb|---------------------------------------------------------------------------|
 F|---------------------------------------------------------------------------|
Bb|---------------------------------------------------------------------------|

Verse 2: Guitar 1 (Distorted)
 C|---------------------------------------------------------------------------|
 G|---------------------------------------------------------------------------|
Eb|---------------------------------------------------------------------------|
Bb|--0-0-0-0-0-0-0-0-0-0-0-0-0-0-0-0-0-0-0-0-0-0-0-0-0-0-0-0-0-0-0-0-0-0-0-0--|
 F|---------------------------------------------------------------------------|
Bb|---------------------------------------------------------------------------|
                                                                              |
Verse 2: Guitar 2 (Distorted)                                                 |
 C|---------------------------------------------------------------------------|
 G|---------------------------------------------------------------------------|
Eb|---------------------------------------------------------------------------|
Bb|-------------------------------------------------8--8--8--8--5--5--5--5----|
 F|-------------------------------------------------8--8--8--8--5--5--5--5----|
Bb|--0-4-3-0-3-0---------------------8-5-1-4--------8--8--8--8--5--5--5--5----|
                                                                              |
Verse 2: Guitar 3 (Distorted with Flanger)                                    |
 C|---------------------------------------------------------------------------|
 G|---------------------------------------------------------------------------|
Eb|--11-----------19-----14------15------14---------------------12------------|
Bb|---------------------------------------------------------------------------|
 F|---------------------------------------------------------------------------|
Bb|---------------------------------------------------------------------------|

Chorus: Guitar 1 (Mild Distortion) PLAY CHORUS 2 TIMES
 C|---------------------------------------------------------------------------|
 G|---------------------------------------------------------------------------|
Eb|--7---7--7--7---/10--10-10--10-10-10----7---7--7--7---/10--10-10--10-10-10-|
Bb|--x---x--x--x----x---x--x---x--x--x-----x---x--x--x----x---x--x---x--x--x--|
 F|--5---5--5--5---/8---8--8---8--8--8-----5---5--5--5---/8---8--8---8--8--8--|
Bb|---------------------------------------------------------------------------|
                                                                              |
Chorus: Guitar 2 (Distorted)                                                  |
 C|---------------------------------------------------------------------------|
 G|---------------------------------------------------------------------------|
Eb|---------------------------------------------------------------------------|
Bb|--8---8----8---8----8---8----8---8------0---0----0---0----0---0----0---0---|
 F|--8---8----8---8----8---8----8---8------0---0----0---0----0---0----0---0---|
Bb|--8---8----8---8----8---8----8---8------0---0----0---0----0---0----0---0---|

Chorus: Guitar 1 (Mild Distortion)
 C|---------------------------------------------------------------------------|
 G|---------------------------------------------------------------------------|
Eb|--12--12-12-12--/14--14-14--14-14-14----14--14-14-14---14--14-14--14-14-14-|
Bb|---x---x--x--x----x---x--x---x--x--x-----x---x--x--x----x---x--x---x--x--x-|
 F|--10--10-10-10--/12--12-12--12-12-12----12--12-12-12---12--12-12--12-12-12-|
Bb|---------------------------------------------------------------------------|
                                                                              |
Chorus: Guitar 2 (Distorted)                                                  |
 C|---------------------------------------------------------------------------|
 G|---------------------------------------------------------------------------|
Eb|---------------------------------------------------------------------------|
Bb|--3---3----3---3----3---3----3---3------2---2----2---2----2---2----2---2---|
 F|--3---3----3---3----3---3----3---3------2---2----2---2----2---2----2---2---|
Bb|--3---3----3---3----3---3----3---3------2---2----2---2----2---2----2---2---|

Bridge: Guitar 1 (Distorted)
 C|---------------------------------------------------------------------------|
 G|---------------------------------------------------------------------------|
Eb|--10-10-10-10-10-10-10-10-10-10-10-10-10-10-10-10-10-10-10-10-10-10-10-10--|
Bb|--x--x--x--x--x--x--x--x--x--x--x--x--x--x--x--x--x--x--x--x--x--x--x--x---|
 F|--8--8--8--8--8--8--8--8--8--8--8--8--8--8--8--8--8--8--8--8--8--8--8--8---|
Bb|---------------------------------------------------------------------------|
                                                                              |
Bridge: Guitar 2 (Distorted)                                                  |
 C|---------------------------------------------------------------------------|
 G|---------------------------------------------------------------------------|
Eb|---------------------------------------------------------------------------|
Bb|--0--0--0-----------0--0--0-----------0--0--0-----------0--0--0------------|
 F|--0--0--0-----------0--0--0-----------0--0--0-----------0--0--0------------|
Bb|--0--0--0-----------0--0--0-----------0--0--0-----------0--0--0------------|

Bridge: Guitar 1 (Distorted)
 C|---------------------------------------------------------------------------|
 G|---------------------------------------------------------------------------|
Eb|--10-10-10-10-10-10-10-10-10-10-10-10-10-10-10-10-10-10-10-10-10-10-10-10--|
Bb|--x--x--x--x--x--x--x--x--x--x--x--x--x--x--x--x--x--x--x--x--x--x--x--x---|
 F|--8--8--8--8--8--8--8--8--8--8--8--8--8--8--8--8--8--8--8--8--8--8--8--8---|
Bb|---------------------------------------------------------------------------|
                                                                              |
Bridge: Guitar 2 (Distorted)                                                  |
 C|---------------------------------------------------------------------------|
 G|---------------------------------------------------------------------------|
Eb|---------------------------------------------------------------------------|
Bb|---------------------------------------------------------------------------|
 F|---------------------------------------------------------------------------|
Bb|--0-4-3-0-3-0-3-4--0-4-3-0-8-5-1-4--0-4-3-0-3-0-3-4--0-4-3-0-8-5-1-4-------|

Bridge: Guitar 1 (Distorted)
 C|---------------------------------------------------------------------------|
 G|---------------------------------------------------------------------------|
Eb|--10-10-10-10-10-10-10-10-10-10-10-10-10-10-10-10-10-10-10-10--------------|
Bb|--x--x--x--x--x--x--x--x--x--x--x--x--x--x--x--x--x--x--x--x----------- ---|
 F|--8--8--8--8--8--8--8--8--8--8--8--8--8--8--8--8--8--8--8--8---------------|
Bb|---------------------------------------------------------------------------|
                                                                              |
Bridge: Guitar 2 (Distorted)                                                  |
 C|---------------------------------------------------------------------------|
 G|---------------------------------------------------------------------------|
Eb|---------------------------------------------------------------------------|
Bb|---------------------------------------------------------------------------|
 F|---------------------------------------------------------------------------|
Bb|--0-4-3-0-3-0-3-4--0-4-3-0-8-5-1-4--0-4-3-0-3-0-3-4--0-4-3-0-8-5-1-4-------|

Chorus: Guitar 1 (Mild Distortion) PLAY CHORUS 2 TIMES
 C|---------------------------------------------------------------------------|
 G|---------------------------------------------------------------------------|
Eb|--7---7--7--7---/10--10-10--10-10-10----7---7--7--7---/10--10-10--10-10-10-|
Bb|--x---x--x--x----x---x--x---x--x--x-----x---x--x--x----x---x--x---x--x--x--|
 F|--5---5--5--5---/8---8--8---8--8--8-----5---5--5--5---/8---8--8---8--8--8--|
Bb|---------------------------------------------------------------------------|
                                                                              |
Chorus: Guitar 2 (Distorted)                                                  |
 C|---------------------------------------------------------------------------|
 G|---------------------------------------------------------------------------|
Eb|---------------------------------------------------------------------------|
Bb|--8---8----8---8----8---8----8---8------0---0----0---0----0---0----0---0---|
 F|--8---8----8---8----8---8----8---8------0---0----0---0----0---0----0---0---|
Bb|--8---8----8---8----8---8----8---8------0---0----0---0----0---0----0---0---|

Chorus: Guitar 1 (Mild Distortion)
 C|---------------------------------------------------------------------------|
 G|---------------------------------------------------------------------------|
Eb|--12--12-12-12--/14--14-14--14-14-14----14--14-14-14---14--14-14--14-14-14-|
Bb|---x---x--x--x----x---x--x---x--x--x-----x---x--x--x----x---x--x---x--x--x-|
 F|--10--10-10-10--/12--12-12--12-12-12----12--12-12-12---12--12-12--12-12-12-|
Bb|---------------------------------------------------------------------------|
                                                                              |
Chorus: Guitar 2 (Distorted)                                                  |
 C|---------------------------------------------------------------------------|
 G|---------------------------------------------------------------------------|
Eb|---------------------------------------------------------------------------|
Bb|--3---3----3---3----3---3----3---3------2---2----2---2----2---2----2---2---|
 F|--3---3----3---3----3---3----3---3------2---2----2---2----2---2----2---2---|
Bb|--3---3----3---3----3---3----3---3------2---2----2---2----2---2----2---2---|

Outro: Guitar 2 (Distorted) PLAY 2 TIMES
 C|---------------------------------------------------------------------------|
 G|---------------------------------------------------------------------------|
Eb|---------------------------------------------------------------------------|
Bb|---------------------------------------------------------------------------|
 F|---------------------------------------------------------------------------|
Bb|--0-4-3-0-3-0-3-4--0-4-3--0-4-3-0-3-0-3-4--0-4-3---------------------------|

Outro: Guitar 2 (Distorted) PLAY 2 TIMES
 C|---------------------------------------------------------------------------|
 G|---------------------------------------------------------------------------|
Eb|---------------------------------------------------------------------------|
Bb|---------------------------------------------------------------------------|
 F|---------------------------------------------------------------------------|
Bb|--0-4-3-0-3-0-3-4--0-4-3-0-8-5-1-4--0-4-3-0-3-0-3-4--0-4-3-0-8-5-1-4-------|

FINISHED!
comments
We did not receive enough feedback on this tab! Please rate:
print report bad tab
1 2 3 4 5
10 comments total. Showing first comments.
0 reply
guitarrastud wrote on March 5 2009, 09:40 pm

what's the site???
can't find it anywhere

0 reply
U B the band wrote on March 5 2009, 10:49 pm

http://www.466623623-263-46784628.com/

0 reply
aaronbob13 wrote on March 13 2009, 06:21 pm

whats the silver key???

I want to post or [tab]
guest
You may want to rate the tab now too:
select rating
Please do not post tabs as comments. Select "correction" instead!