Oops, an error
Loading. Please wait.

Gave It All Away Tab

by Red
ver1
ver1

Whole song

More versions @911Tabs.com
4,903 views 1 this week
no commentswrite comment
1 2 3 4 5
accurate
x 1
Autoscroll
+/-
esc
set tempo
stop
Contributor
WARNING: You are trying to view
                                    content from Ultimate-Guitar.com
                                    in an unauthorized application,
                                    which is prohibited.

                                    Please use an official Ultimate
                                    Guitar Tabs application for iPhone,
                                    iPad or Android to access legitimate
                                    chords, guitar, bass, and drum tabs
                                    from Ultimate-Guitar.com database.

                                    Type "ultimate guitar tabs" in Apple
                                    App Store's or Android Market's
                                    search to find the application.
Song: Gave It All Away
Artist: Red
Album: End Of Silence

Hey. This isn't 100% correct, but its pretty close. Please rate and leave comments/corrections.

Key:
Hammer On   h
Pull Off           p
Dead Note     x

=====GUITAR=1=====

Intro (0:00) Play x2
d|------------------------------|------------------------------|
A|------------------------------|------------------------------|
F|------------------------------|------------------------------|
C|------------------------------|------------------------------|
G|------------------------------|------------------------------|
C|--0-0-7-7-5-5-0-0-8-8-7-7-5-7-|-0-0-7-7-5-5-0-0-8-8-7-7-5-3--|

d|------------------------------|--------------------------|
A|------------------------------|--------------------------|
F|------------------------------|--------------------------|
C|------------------------------|--------------------------|
G|------------------------------|--------------------------|
C|--0-0-7-7-5-5-0-0-8-8-7-7-5-7-|-0-0-7-7-5-5-0-3--3-1--1--|

Verse 1 (0:19) 
d|-----------|
A|-----------|
F|-----------|
C|-----------|
G|------3-0--|
C|------3-0--|

Chorus (0:42)
d|----------|---------|-----------|---------|
A|----------|---------|-----------|---------|
F|----------|---------|-----------|---------|
C|--0-0-0-0-|-5-5-5-5-|-8-8-10-10-|-8-8-8-8-|
G|--0-0-0-0-|-3-3-3-3-|-8-8-10-10-|-8-8-8-8-|
C|--0-0-0-0-|-5-5-5-5-|-8-8-10-10-|-8-8-8-8-|

d|----------|---------|---------|
A|----------|---------|---------|
F|----------|---------|---------|
C|--0-0-0-0-|-3-3-3-3-|-5-5-7-7-|
G|--0-0-0-0-|-3-3-3-3-|-5-5-7-7-|
C|--0-0-0-0-|-3-3-3-3-|-5-5-7-7-|

Post-chorus (0:59)
d|------------------------------|----------------------------|
A|------------------------------|----------------------------|
F|------------------------------|----------------------------|
C|------------------------------|----------------------------|
G|------------------------------|----------------------------|
C|--0-0-7-7-5-5-0-0-8-8-7-7-5-7-|-0-0-7-7-5-5-0-0-8-8-7-7-3--|

d|------------------------------|--------------------------|
A|------------------------------|--------------------------|
F|------------------------------|--------------------------|
C|------------------------------|--------------------------|
G|------------------------------|--------------------------|
C|--0-0-7-7-5-5-0-0-8-8-7-7-5-7-|-0-0-7-7-5-5-0-3--3-1--1--|

Verse 2 (1:09) 
d|-----------|
A|-----------|
F|-----------|
C|-----------|
G|------3-0--|
C|------3-0--|

Chorus (1:31)
d|----------|---------|-----------|---------|
A|----------|---------|-----------|---------|
F|----------|---------|-----------|---------|
C|--0-0-0-0-|-5-5-5-5-|-8-8-10-10-|-8-8-8-8-|
G|--0-0-0-0-|-3-3-3-3-|-8-8-10-10-|-8-8-8-8-|
C|--0-0-0-0-|-5-5-5-5-|-8-8-10-10-|-8-8-8-8-|

d|----------|---------|---------|----------|
A|----------|---------|---------|----------|
F|----------|---------|---------|----------|
C|--0-0-0-0-|-3-3-3-3-|-5-5-7-7-|-7-7-7-7--|
G|--0-0-0-0-|-3-3-3-3-|-5-5-7-7-|-7-7-7-7--|
C|--0-0-0-0-|-3-3-3-3-|-5-5-7-7-|-7-7-7-7--|

Bridge (1:52)
d|--------------------|----------------------|----------------------|
A|--------------------|----------------------|----------------------|
F|---------2222222222-|-----------2222222222-|-----------2222222222-|
C|---------xxxxxxxxxx-|-----------xxxxxxxxxx-|-----------xxxxxxxxxx-|
G|---------0000000000-|-----------0000000000-|-----------0000000000-|
C|--1--1-1------------|-0--1--1-1------------|-0--1--1-1------------|

d|-----------------------------|
A|-----------------------------|
F|-----------------------------|
C|-----------------------------|
G|-----------------------------|
C|-5--5-5--5-5-5-7--7-7--7-7-7-|

d|-------------------|-------------------|----------------------------|
A|-------------------|-------------------|----------------------------|
F|--------2222222222-|--------2222222222-|-----------222222-----------|
C|--------xxxxxxxxxx-|--------xxxxxxxxxx-|-----------xxxxxx-----------|
G|--------0000000000-|--------0000000000-|-----------000000-----------|
C|-1--1-1------------|-1--1-1------------|-0--1--1-1--------5h7-7h8p7-|

d|-----------------------------|
A|-----------------------------|
F|-----------------------------|
C|-----------------------------|
G|-----------------------------|
C|-5--5-5--5-5-5-7--7-7--7-7-7-|

Chorus (2:11)
d|----------|---------|---------|----====--|
A|----------|---------|---------|----=x3=--|
F|----------|---------|---------|----====--|
C|--8-8-8-8-|-0-0-0-0-|-3-3-3-3-|-5-5-7-7--|
G|--8-8-8-8-|-0-0-0-0-|-3-3-3-3-|-5-5-7-7--|
C|--8-8-8-8-|-0-0-0-0-|-3-3-3-3-|-5-5-7-7--|

Outro (2:50)
d|------------------------------|------------------------------|
A|------------------------------|------------------------------|
F|------------------------------|------------------------------|
C|------------------------------|------------------------------|
G|------------------------------|------------------------------|
C|--0-0-7-7-5-5-0-0-8-8-7-7-5-7-|-0-0-7-7-5-5-0-0-8-8-7-7-5-3--|

d|------------------------------|--------------------------|
A|------------------------------|--------------------------|
F|------------------------------|--------------------------|
C|------------------------------|--------------------------|
G|------------------------------|--------------------------|
C|--0-0-7-7-5-5-0-0-8-8-7-7-5-7-|-0-0-7-7-5-5-0-5--5-3--3--|

d|--------------------|----------------------|
A|--------------------|----------------------|
F|---------2222222222-|-----------2222222222-|
C|---------xxxxxxxxxx-|-----------xxxxxxxxxx-|
G|---------0000000000-|-----------0000000000-|
C|--1--1-1------------|-0--1--1-1------------|

d|-------------------------------|
A|-------------------------------|
F|-----------22222222------------|
C|-----------xxxxxxxx------------|
G|-----------00000000------------|
C|-0--1--1-1----------5h7-7h8p9--|

d|-------------------------------|
A|-------------------------------|
F|-------------------------------|
C|-------------------------------|
G|-------------------------------|
C|--5--5-5--5-5-5-3--3-3-1--1-1--|

=====GUITAR=2=====

Intro (0:00) 
d|------------------------------|------------------------------|
A|------------------------------|------------------------------|
F|------------------------------|----------------14-14--12-12--|
C|------------------------------|----------------x--x---x--x---|
G|------------------------------|----------------12-12--10-10--|
C|--0-0-7-7-5-5-0-0-8-8-7-7-5-7-|-0-0-7-7-5-5-0----------------|

d|------------------------------|------------------------------|
A|------------------------------|------------------------------|
F|------------------------------|------------------------------|
C|------------------------------|------------------------------|
G|------------------------------|------------------------------|
C|--0-0-7-7-5-5-0-0-8-8-7-7-5-7-|-0-0-7-7-5-5-0-0-8-8-7-7-5-7--|

d|------------------------------|------------------------------|
A|------------------------------|------------------------------|
F|------------------------------|------------------------------|
C|------------------------------|------------------------------|
G|------------------------------|---------------12--12-10--10--|
C|--0-0-7-7-5-5-0-0-8-8-7-7-5-7-|-0-0-7-7-5-5-0----------------|

Verse 1 (0:19) 
d|-----------|
A|-----------|
F|-----------|
C|-----------|
G|------3-0--|
C|------3-0--|

Chorus (0:42)
d|----------|---------|-----------|---------|
A|----------|---------|-----------|---------|
F|----------|---------|-----------|---------|
C|--0-0-0-0-|-5-5-5-5-|-8-8-10-10-|-8-8-8-8-|
G|--0-0-0-0-|-3-3-3-3-|-8-8-10-10-|-8-8-8-8-|
C|--0-0-0-0-|-5-5-5-5-|-8-8-10-10-|-8-8-8-8-|

d|----------|---------|---------|
A|----------|---------|---------|
F|----------|---------|---------|
C|--0-0-0-0-|-3-3-3-3-|-5-5-7-7-|
G|--0-0-0-0-|-3-3-3-3-|-5-5-7-7-|
C|--0-0-0-0-|-3-3-3-3-|-5-5-7-7-|

Post-chorus (0:59)
d|------------------------------|------------------------------|
A|------------------------------|------------------------------|
F|------------------------------|------------------------------|
C|------------------------------|------------------------------|
G|------------------------------|------------------------------|
C|--0-0-7-7-5-5-0-0-8-8-7-7-5-7-|-0-0-7-7-5-5-0-0-8-8-7-7-5-7--|

d|------------------------------|------------------------------|
A|------------------------------|------------------------------|
F|------------------------------|------------------------------|
C|------------------------------|------------------------------|
G|------------------------------|---------------12--12-10--10--|
C|--0-0-7-7-5-5-0-0-8-8-7-7-5-7-|-0-0-7-7-5-5-0----------------|

Verse 2 (1:09) 
d|-----------|
A|-----------|
F|-----------|
C|-----------|
G|------3-0--|
C|------3-0--|

Chorus (1:31)
d|----------|---------|-----------|---------|
A|----------|---------|-----------|---------|
F|----------|---------|-----------|---------|
C|--0-0-0-0-|-5-5-5-5-|-8-8-10-10-|-8-8-8-8-|
G|--0-0-0-0-|-3-3-3-3-|-8-8-10-10-|-8-8-8-8-|
C|--0-0-0-0-|-5-5-5-5-|-8-8-10-10-|-8-8-8-8-|

d|----------|---------|---------|----------|
A|----------|---------|---------|----------|
F|----------|---------|---------|----------|
C|--0-0-0-0-|-3-3-3-3-|-5-5-7-7-|-7-7-7-7--|
G|--0-0-0-0-|-3-3-3-3-|-5-5-7-7-|-7-7-7-7--|
C|--0-0-0-0-|-3-3-3-3-|-5-5-7-7-|-7-7-7-7--|

Bridge (1:52)
d|--------------------|----------------------|----------------------|
A|--------------------|----------------------|----------------------|
F|---------2222222222-|-----------2222222222-|-----------2222222222-|
C|---------xxxxxxxxxx-|-----------xxxxxxxxxx-|-----------xxxxxxxxxx-|
G|---------0000000000-|-----------0000000000-|-----------0000000000-|
C|--1--1-1------------|-0--1--1-1------------|-0--1--1-1------------|

d|-----------------------------|
A|-----------------------------|
F|-----------------------------|
C|-----------------------------|
G|-----------------------------|
C|-5--5-5--5-5-5-7--7-7--7-7-7-|

d|-------------------|-------------------|----------------------------|
A|-------------------|-------------------|----------------------------|
F|--------2222222222-|--------2222222222-|-----------222222-----------|
C|--------xxxxxxxxxx-|--------xxxxxxxxxx-|-----------xxxxxx-----------|
G|--------0000000000-|--------0000000000-|-----------000000-----------|
C|-1--1-1------------|-1--1-1------------|-0--1--1-1--------5h7-7h8p7-|

d|-----------------------------|
A|-----------------------------|
F|-----------------------------|
C|-----------------------------|
G|-----------------------------|
C|-5--5-5--5-5-5-7--7-7--7-7-7-|

Chorus (2:11)
d|----------|---------|---------|----====--|
A|----------|---------|---------|----=x3=--|
F|----------|---------|---------|----====--|
C|--8-8-8-8-|-0-0-0-0-|-3-3-3-3-|-5-5-7-7--|
G|--8-8-8-8-|-0-0-0-0-|-3-3-3-3-|-5-5-7-7--|
C|--8-8-8-8-|-0-0-0-0-|-3-3-3-3-|-5-5-7-7--|

Outro (2:50)
d|------------------------------|------------------------------|
A|------------------------------|------------------------------|
F|------------------------------|------------------------------|
C|------------------------------|------------------------------|
G|------------------------------|------------------------------|
C|--0-0-7-7-5-5-0-0-8-8-7-7-5-7-|-0-0-7-7-5-5-0-0-8-8-7-7-5-7--|

d|------------------------------|--------------------------|
A|------------------------------|--------------------------|
F|------------------------------|--------------------------|
C|------------------------------|--------------------------|
G|------------------------------|--------------------------|
C|--0-0-7-7-5-5-0-0-8-8-7-7-5-7-|-0-0-7-7-5-5-0-3--3-1--1--|

d|--------------------|----------------------|-----------------------------|
A|--------------------|----------------------|-----------------------------|
F|---------2222222222-|-----------2222222222-|-----------2222222222222222--|
C|---------xxxxxxxxxx-|-----------xxxxxxxxxx-|-----------xxxxxxxxxxxxxxxx--|
G|---------0000000000-|-----------0000000000-|-----------0000000000000000--|
C|--1--1-1------------|-0--1--1-1------------|-0--1--1-1-------------------|

d|-------------------------------|
A|-------------------------------|
F|-------------------------------|
C|-------------------------------|
G|-------------------------------|
C|--5--5-5--5-5-5-3--3-3-1--1-1--|


=====ACOUSTIC=GUITAR=====

Chorus (2:11)
d|-------------------|-1111111111111111-|-0000000000000000-|
A|-------------------|-3333333333333333-|-1111111111111111-|
F|--3333333333333333-|-2222222222222222-|-0000000000000000-|
C|--3333333333333333-|-0000000000000000-|-2222222222222222-|
G|--1111111111111111-|-0000000000000000-|-3333333333333333-|
C|-------------------|------------------|------------------|

d|--------------------|
A|--------------------|
F|-33333333-55555555--|
C|-33333333-55555555--|
G|-11111111-33333333--|
C|--------------------|




comments
We did not receive enough feedback on this tab! Please rate:
print report bad tab
1 2 3 4 5
I want to post or [tab]
guest
You may want to rate the tab now too:
select rating
Please do not post tabs as comments. Select "correction" instead!