Oops, an error
Loading. Please wait.

Hold Me Now Tab

by Red
1,848 views 6 this week
no commentswrite comment
1 2 3 4 5
accurate
x 4
Autoscroll
+/-
esc
set tempo
stop
Contributor
Difficulty
Tuning
intermediate
C# G# C# F# A# D#
WARNING: You are trying to view
                                    content from Ultimate-Guitar.com
                                    in an unauthorized application,
                                    which is prohibited.

                                    Please use an official Ultimate
                                    Guitar Tabs application for iPhone,
                                    iPad or Android to access legitimate
                                    chords, guitar, bass, and drum tabs
                                    from Ultimate-Guitar.com database.

                                    Type "ultimate guitar tabs" in Apple
                                    App Store's or Android Market's
                                    search to find the application.
*UPDATE*                                                               |
Ok so I just made a major update to this tab.                          |
It's now in the correct tuning.                                        |
Also I put the chords along with the lyrics                            |
for the first half of the song which is acoustic.                      |
-----------------------------------------------------------------------|
Red - Hold Me Now
Standard Tuning (EADGBe) *(First Half)*
Capo 1st Fret

Chords Used
===========
///EADGBe
Bm x24432
D  xx0232
A  x02220
G  320033

Intro 0:08
Bm D

Verse 0:16
Bm                       D
Fall asleep to dreams of home
D
Where the waves are crashing
Bm                       D
The only place I've ever known
D
Now the future has me
Bm                    D
I see the fire in the sky
D
See it all around me

Pre-Chorus 0:38
A                            Bm            G
I said the past is dead, the life I had is gone
A
I said I won't give up
Bm              G
Until I see the sun

Chorus 0:53
D             A
Hold me now
                 Bm
'Til the fear is leaving
            G
I am barely breathing

Here is where it goes electric
Drop C# Tuning
Verse 1:08
D#|-----------------------------------------------------------------|
A#|-----------------------------------------------------------------|
F#|6-6-6-6-6-6-6-6-6-6-6-6-6--8-8-8--9-9-9-9-9-9-9-9-9-9-9-9-9-9-9-9|x4
C#|6-6-6-6-6-6-6-6-6-6-6-6-6--8-8-8--9-9-9-9-9-9-9-9-9-9-9-9-9-9-9-9|
G#|4-4-4-4-4-4-4-4-4-4-4-4-4--6-6-6--7-7-7-7-7-7-7-7-7-7-7-7-7-7-7-7|
C#|-----------------------------------------------------------------|
PM******************************************************************|

Pre-Chorus 1:38
D#|-----------------------------------------------------------------|
A#|-----------------------------------------------------------------|
F#|4-4-4-4-4-4-4-4-4-4-4-4-4-4-4-4--6-6-6-6-6-6-6-6-----------------|x2
C#|4-4-4-4-4-4-4-4-4-4-4-4-4-4-4-4--6-6-6-6-6-6-6-6--7-7-7-7-7-7-7-7|
G#|2-2-2-2-2-2-2-2-2-2-2-2-2-2-2-2--4-4-4-4-4-4-4-4--7-7-7-7-7-7-7-7|
C#|--------------------------------------------------7-7-7-7-7-7-7-7|
PM******************************************************************|
                     *Slowly release palm mute second time through^*|

Chorus 1:53
D#|----------------------------------------------------------------|--\
A#|----------------------------------------------------------------|   |
F#|---------------------------------4-4-4-4-4-4-4-4-4-4-4-4-4-4-4-4|   |
C#|2-2-2-2-2-2-2-2-2-2-2-2-2-2-2-2--4-4-4-4-4-4-4-4-4-4-4-4-4-4-4-4|   |
G#|2-2-2-2-2-2-2-2-2-2-2-2-2-2-2-2--2-2-2-2-2-2-2-2-2-2-2-2-2-2-2-2|   |
C#|2-2-2-2-2-2-2-2-2-2-2-2-2-2-2-2---------------------------------|   |
                                                                       |x2
D#|----------------------------------------------------------------|   |
A#|----------------------------------------------------------------|   |
F#|6-6-6-6-6-6-6-6-6-6-6-6-6-6-6-6---------------------------------|   |
C#|6-6-6-6-6-6-6-6-6-6-6-6-6-6-6-6--7-7-7-7-7-7-7-7-7-7-7-7-7-7-7-7|   |
G#|4-4-4-4-4-4-4-4-4-4-4-4-4-4-4-4--7-7-7-7-7-7-7-7-7-7-7-7-7-7-7-7|   |
C#|---------------------------------7-7-7-7-7-7-7-7-7-7-7-7-7-7-7-7|--/

Bridge 2:23
D#|-----------------------------------------------------------------|
A#|-----------------------------------------------------------------|
F#|4-4-4-4-4-4-4-4-4-4-4-4-4-4-4-4--6-6-6-6-6-6-6-6-----------------|x2
C#|4-4-4-4-4-4-4-4-4-4-4-4-4-4-4-4--6-6-6-6-6-6-6-6--7-7-7-7-7-7-7-7|
G#|2-2-2-2-2-2-2-2-2-2-2-2-2-2-2-2--4-4-4-4-4-4-4-4--7-7-7-7-7-7-7-7|
C#|--------------------------------------------------7-7-7-7-7-7-7-7|

D#|----------------------------------------------|
A#|----------------------------------------------|
F#|----------------------------------------------|
C#|4-4-4-4-4-4-4-4-4-4-4-4-4-4-4-4--7-7-7-7-7-7-7|
G#|4-4-4-4-4-4-4-4-4-4-4-4-4-4-4-4--7-7-7-7-7-7-7|
C#|4-4-4-4-4-4-4-4-4-4-4-4-4-4-4-4--7-7-7-7-7-7-7|

Chorus 2:53
D#|----------------------------------------------------------------|
A#|----------------------------------------------------------------|
F#|6-6-6-6-6-6-6-6-6-6-6-6-6-6-6-6---------------------------------|
C#|6-6-6-6-6-6-6-6-6-6-6-6-6-6-6-6--7-7-7-7-7-7-7-7-7-7-7-7-7-7-7-7|
G#|4-4-4-4-4-4-4-4-4-4-4-4-4-4-4-4--7-7-7-7-7-7-7-7-7-7-7-7-7-7-7-7|
C#|---------------------------------7-7-7-7-7-7-7-7-7-7-7-7-7-7-7-7|

D#|----------------------------------------------------------------|--\
A#|----------------------------------------------------------------|   |
F#|---------------------------------4-4-4-4-4-4-4-4-4-4-4-4-4-4-4-4|   |
C#|2-2-2-2-2-2-2-2-2-2-2-2-2-2-2-2--4-4-4-4-4-4-4-4-4-4-4-4-4-4-4-4|   |
G#|2-2-2-2-2-2-2-2-2-2-2-2-2-2-2-2--2-2-2-2-2-2-2-2-2-2-2-2-2-2-2-2|   |
C#|2-2-2-2-2-2-2-2-2-2-2-2-2-2-2-2---------------------------------|   |
                                                                       |x2|  |Last time through end on
D#|----------------------------------------------------------------|   |--|D#|
A#|----------------------------------------------------------------|   |--|A#|
F#|6-6-6-6-6-6-6-6-6-6-6-6-6-6-6-6---------------------------------|   |--|F#|
C#|6-6-6-6-6-6-6-6-6-6-6-6-6-6-6-6--7-7-7-7-7-7-7-7-7-7-7-7-7-7-7-7|   |--|C#|2
G#|4-4-4-4-4-4-4-4-4-4-4-4-4-4-4-4--7-7-7-7-7-7-7-7-7-7-7-7-7-7-7-7|   |--|G#|2
C#|---------------------------------7-7-7-7-7-7-7-7-7-7-7-7-7-7-7-7|--/ --|C#|2
comments
print report bad tab
I want to post or [tab]
guest
You may want to rate the tab now too:
select rating
Please do not post tabs as comments. Select "correction" instead!