Oops, an error
Loading. Please wait.

Let Go Tab

by Red
ver2
ver2

Whole song

Interactive

More versions @911Tabs.com
8,821 views 18 this week
3 commentsread comments
1 2 3 4 5
excellent!
x 5
Autoscroll
+/-
esc
set tempo
stop
Contributor
Hey! There's an official Ultimate Guitar app which is ideal
for learning songs when you're away from computer. Get the app
WARNING: You are trying to view
                                    content from Ultimate-Guitar.com
                                    in an unauthorized application,
                                    which is prohibited.

                                    Please use an official Ultimate
                                    Guitar Tabs application for iPhone,
                                    iPad or Android to access legitimate
                                    chords, guitar, bass, and drum tabs
                                    from Ultimate-Guitar.com database.

                                    Type "ultimate guitar tabs" in Apple
                                    App Store's or Android Market's
                                    search to find the application.
Song: Let Go
Artist: Red
Album: End Of Silence

Tuning: Drop C

Hey. Just a few notes, there are no breaks in the strumming during the chorus and outro, 
put them there to make it easier to read. Guitar 1 changes volume quite a bit, so if 
something in tab that you can't make out, just listen closer... hopefully it should all be there.

Key:
Hammer On      h
Pull Off               p
Palm Mute         *
Slide                   s

=======GUITAR=1======

Intro (0:08)
d|----------------------------------|----------------------------------|
A|----------------------------------|----------------------------------|
F|----------------------------------|----------------------------------|
C|----------------------------------|----------------------------------|
G|----------------3-3---------------|---------------3-3----------------|
C|--0-0-0-3-1-1-1-----0-0-4-4-4-1-1-|-0-0-0-3-1-1-1-----0-0-3-3-3-5-5--|

d|----------------------------------|----------------------------------|
A|----------------------------------|----------------------------------|
F|----------------------------------|----------------------------------|
C|----------------------------------|----------------------------------|
G|----------------3-3---------------|---------------3-3-----3-----3-3--|
C|--0-0-0-3-1-1-1-----0-0-4-4-4-1-1-|-0-0-0-3-1-1-1-----0-0---0-0------|

d|----------------------------------|----------------------------------|
A|----------------------------------|----------------------------------|
F|----------------------------------|----------------------------------|
C|----------------------------------|----------------------------------|
G|----------------3-3---------------|---------------3-3----------------|
C|--0-0-0-3-1-1-1-----0-0-4-4-4-1-1-|-0-0-0-3-1-1-1-----0-0-3-3-3-5-5--|

d|----------------------------------|----------------------------------|
A|----------------------------------|----------------------------------|
F|----------------------------------|----------------------------------|
C|----------------------------------|----------------------------------|
G|----------------3-3---------------|---------------3-3----------------|
C|--0-0-0-3-1-1-1-----0-0-4-4-4-1-1-|-0-0-0-3-1-1-1-----0-0-3-3-3-5-5--|

Verse 1 (0:32)
d|----------------------------------|----------------------------------|
A|----------------------------------|----------------------------------|
F|----------------------------------|----------------------------------|
C|----------------------------------|----------------------------------|
G|----------------3-3---------------|---------------3-3----------------|
C|--0-0-0-3-1-1-1-----0-0-4-4-4-1-1-|-0-0-0-3-1-1-1-----0-0-3-3-3-5-5--|

d|----------------------------------|----------------------------------|
A|----------------------------------|----------------------------------|
F|----------------------------------|----------------------------------|
C|----------------------------------|----------------------------------|
G|----------------3-3---------------|---------------3-3-----3-----3-3--|
C|--0-0-0-3-1-1-1-----0-0-4-4-4-1-1-|-0-0-0-3-1-1-1-----0-0---0-0------|

d|----------------------------------|----------------------------------|
A|----------------------------------|----------------------------------|
F|----------------------------------|----------------------------------|
C|----------------------------------|----------------------------------|
G|----------------3-3---------------|---------------3-3----------------|
C|--0-0-0-3-1-1-1-----0-0-4-4-4-1-1-|-0-0-0-3-1-1-1-----0-0-3-3-3-5-5--|

d|----------------------------------|----------------------------------|
A|----------------------------------|----------------------------------|
F|----------------------------------|----------------------------------|
C|----------------------------------|----------------------------------|
G|----------------3-3---------------|---------------3-3----------------|
C|--0-0-0-3-1-1-1-----0-0-4-4-4-1-1-|-0-0-0-3-1-1-1-----0-0-3-3-3-5-5--|

Pre-chorus (0:57)
d|----------|-------------|---------|------------|
A|----------|-------------|---------|------------|
F|--7-7-8-8-|-10-10-11-11-|-7-7-8-8-|-10-10-8-8--|
C|--x-x-x-x-|-x--x--x--x--|-x-x-x-x-|-x--x--x-x--|
G|--5-5-6-6-|-8--8--9--9--|-5-5-6-6-|-8--8--6-6--|
C|----------|-------------|---------|------------|

Chorus (1:10) Play x4
d|------------------------------------|
A|------------------------------------|
F|-151515151515-1414-1212121212121212-|
C|-x-x-x-x-x-x--x-x--x-x-x-x-x-x-x-x--|
G|-131313131313-1212-1010101010101010-|
C|------------------------------------|

d|-------------------------------------|
A|-------------------------------------|
F|-15151515-14141414-12121212-10101010-|
C|-x-x-x-x--x-x-x-x--x-x-x-x--x-x-x-x--|
G|-13131313-12121212-10101010-8-8-8-8--|
C|-------------------------------------|

Post Chorus (1:34)
d|----------------------------------|----------------------------------|
A|----------------------------------|----------------------------------|
F|----------------------------------|----------------------------------|
C|----------------------------------|----------------------------------|
G|----------------3-3---------------|---------------3-3----------------|
C|--0-0-0-3-1-1-1-----0-0-4-4-4-1-1-|-0-0-0-3-1-1-1-----0-0-3-3-3-5-5--|

d|----------------------------------|----------------------------------|
A|----------------------------------|----------------------------------|
F|----------------------------------|----------------------------------|
C|----------------------------------|----------------------------------|
G|----------------3-3---------------|---------------3-3-----3-----3-3--|
C|--0-0-0-3-1-1-1-----0-0-4-4-4-1-1-|-0-0-0-3-1-1-1-----0-0---0-0------|

Verse 2 (1:46)
d|----------------------------------|----------------------------------|
A|----------------------------------|----------------------------------|
F|----------------------------------|----------------------------------|
C|----------------------------------|----------------------------------|
G|----------------3-3---------------|---------------3-3----------------|
C|--0-0-0-3-1-1-1-----0-0-4-4-4-1-1-|-0-0-0-3-1-1-1-----0-0-3-3-3-5-5--|

d|----------------------------------|----------------------------------|
A|----------------------------------|----------------------------------|
F|----------------------------------|----------------------------------|
C|----------------------------------|----------------------------------|
G|----------------3-3---------------|---------------3-3----------------|
C|--0-0-0-3-1-1-1-----0-0-4-4-4-1-1-|-0-0-0-3-1-1-1-----0-0-3-3-3-5-5--|


Pre-chorus (1:59)
d|----------|-------------|---------|------------|
A|----------|-------------|---------|------------|
F|--7-7-8-8-|-10-10-11-11-|-7-7-8-8-|-10-10-8-8--|
C|--x-x-x-x-|-x--x--x--x--|-x-x-x-x-|-x--x--x-x--|
G|--5-5-6-6-|-8--8--9--9--|-5-5-6-6-|-8--8--6-6--|
C|----------|-------------|---------|------------|

Chorus (1:10) Play x4
d|------------------------------------|
A|------------------------------------|
F|-151515151515-1414-1212121212121212-|
C|-x-x-x-x-x-x--x-x--x-x-x-x-x-x-x-x--|
G|-131313131313-1212-1010101010101010-|
C|------------------------------------|

d|-------------------------------------|
A|-------------------------------------|
F|-15151515-14141414-12121212-10101010-|
C|-x-x-x-x--x-x-x-x--x-x-x-x--x-x-x-x--|
G|-13131313-12121212-10101010-8-8-8-8--|
C|-------------------------------------|

Bridge (2:36)
d|-------------====-|----------------------------====-|
A|-------------=x6=-|----------------------------=x3=-|
F|-------------====-|----------------------------====-|
C|--0-0-3-3-1-1-0-1-|---------------------------------|
G|------------------|---------------------------------|
C|------------------|-0-0-3-3-1-1-0-1-1-1-4-4-3-3-1-1-|
    * * * * * * * *

d|--------------------------|
A|--------------------------|
F|--------------------------|
C|--------------------------|
G|--------------------------|
C|-0-0-3-3-1-1-0-1-1-4-4-3--|

d|----------------------------====--|
A|----------------------------=x4=--|
F|----------------------------====--|
C|----------------------------------|
G|----------------------------------|
C|-0-0-3-3-1-1-0-1-1-1-4-4-3-3-1-1--|

Chorus (3:31) Play x3
d|------------------------------------|
A|------------------------------------|
F|-151515151515-1414-1212121212121212-|
C|-x-x-x-x-x-x--x-x--x-x-x-x-x-x-x-x--|
G|-131313131313-1212-1010101010101010-|
C|------------------------------------|

d|-------------------------------------|
A|-------------------------------------|
F|-15151515-14141414-12121212-10101010-|
C|-x-x-x-x--x-x-x-x--x-x-x-x--x-x-x-x--|
G|-13131313-12121212-10101010-8-8-8-8--|
C|-------------------------------------|

Then
d|------------------------------------|
A|------------------------------------|
F|-151515151515-1414-1212121212121212-|
C|-x-x-x-x-x-x--x-x--x-x-x-x-x-x-x-x--|
G|-131313131313-1212-1010101010101010-|
C|------------------------------------|

d|-------------------------------------|
A|-------------------------------------|
F|-1212121212121212-14141414-15151515--|
C|-x-x-x-x-x-x-x-x--x-x-x-x--x-x-x-x---|
G|-8-8-8-8-8-8-8-8--12121212-13131313--|
C|-------------------------------------|

Outro (3:56) Play x5 Fade Out
d|----------------------------------------|
A|----------------------------------------|
F|--171717171717-2020-19191919-1515151515-|
C|--x-x-x-x-x-x--x-x--x-x-x-x--x-x-x-x-x--|
G|--151515151515-1818-17171717-1313131312-|
C|----------------------------------------|

d|-------------------------------------|
A|-------------------------------------|
F|-14141414141414-1515-1414-1515-1919--|
C|-x-x-x-x-x-x-x--x-x--x-x--x-x--x-x---|
G|-12121212121212-1313-1212-1313-1717--|
C|-------------------------------------|


=======GUITAR=2=======


Intro (0:19)
d|-------------|
A|-------------|
F|-------------|
C|-------------|
G|--3-----3-3--|
C|----0-0------|

d|----------------------------------|----------------------------------|
A|----------------------------------|----------------------------------|
F|----------------------------------|----------------------------------|
C|----------------------------------|----------------------------------|
G|----------------3-3---------------|---------------3-3----------------|
C|--0-0-0-3-1-1-1-----0-0-4-4-4-1-1-|-0-0-0-3-1-1-1-----0-0-3-3-3-5-5--|

d|----------------------------------|----------------------------------|
A|----------------------------------|----------------------------------|
F|----------------------------------|----------------------------------|
C|----------------------------------|----------------------------------|
G|----------------3-3---------------|---------------3-3----------------|
C|--0-0-0-3-1-1-1-----0-0-4-4-4-1-1-|-0-0-0-3-1-1-1-----0-0-3-3-3-5-5--|

Verse (0:32)
d|--------------|----------------|------------------|-----------------|
A|--------------|----------------|------------------|-----------------|
F|--------------|----------------|------------------|-----------------|
C|--------------|----------------|------------------|-----------------|
G|--------------|----------------|------------------|-----------------|
C|--0-0-3-3-1-0-|-1--0-0-3-3-1-0-|-0h1--0-0-3-3-1-0-|-1--0-0-3-3-1-0--|

d|----------------------------------|----------------------------------|
A|----------------------------------|----------------------------------|
F|----------------------------------|----------------------------------|
C|----------------------------------|----------------------------------|
G|----------------3-3---------------|---------------3-3----------------|
C|--0-0-0-3-1-1-1-----0-0-4-4-4-1-1-|-0-0-0-3-1-1-1-----0-0-3-3-3-5-5--|

d|----------------------------------|----------------------------------|
A|----------------------------------|----------------------------------|
F|----------------------------------|----------------------------------|
C|----------------------------------|----------------------------------|
G|----------------3-3---------------|---------------3-3----------------|
C|--0-0-0-3-1-1-1-----0-0-4-4-4-1-1-|-0-0-0-3-1-1-1-----0-0-3-3-3-5-5--|

Pre-chorus (0:57)
d|----------------|---------------|---------------|------------------|
A|----------------|---------------|---------------|------------------|
F|----------------|---------------|---------------|------------------|
C|--0-0-00-1-1-11-|-3-3-33-5-5-55-|-0-0-00-1-1-11-|-3-3-33-1-111111--|
G|--0-0-00-1-1-11-|-3-3-33-5-5-55-|-0-0-00-1-1-11-|-3-3-33-1-111111--|
C|--0-0-00-1-1-11-|-3-3-33-5-5-55-|-0-0-00-1-1-11-|-3-3-33-1-111111--|

Chorus (1:10)
d|----------------------------------------|
A|----------------------------------------|
F|--333333-11-----------------------------|
C|--555555-33-55555555-33333333-00000000--|
G|--111111-33-55555555-33333333-00000000--|
C|------------55555555-33333333-00000000--|

d|----------------------------------------|
A|----------------------------------------|
F|--333333-11-----------------------------|
C|--555555-33-55555555-333333333333-0000--|
G|--111111-33-55555555-333333333333-0000--|
C|------------55555555-333333333333-0000--|

d|----------------------------------------|
A|----------------------------------------|
F|--333333-11-----------------------------|
C|--555555-33-55555555-33333333-00000000--|
G|--111111-33-55555555-33333333-00000000--|
C|------------55555555-33333333-00000000--|

d|---------------------------------------|
A|---------------------------------------|
F|--333333-11----------------------------|
C|--555555-33-55555555-3333333333333333--|
G|--111111-33-55555555-3333333333333333--|
C|------------55555555-3333333333333333--|


Post-chorus (1:34)
d|-------------|------------------|------------------|-----------------|
A|-------------|------------------|------------------|-----------------|
F|-------------|------------------|------------------|-----------------|
C|-------------|------------------|------------------|-----------------|
G|-------------|------------------|------------------|-----------------|
C|-0-0-3-3-1-0-|-0h1--0-0-3-3-1-0-|-0h1--0-0-3-3-1-0-|-1--0-0-3-3-1-0--|
Verse 2 (1:46)

d|----------------------------------|----------------------------------|
A|----------------------------------|----------------------------------|
F|----------------------------------|----------------------------------|
C|----------------------------------|----------------------------------|
G|----------------3-3---------------|---------------3-3----------------|
C|--0-0-0-3-1-1-1-----0-0-4-4-4-1-1-|-0-0-0-3-1-1-1-----0-0-3-3-3-5-5--|

d|----------------------------------|----------------------------------|
A|----------------------------------|----------------------------------|
F|----------------------------------|----------------------------------|
C|----------------------------------|----------------------------------|
G|----------------3-3---------------|---------------3-3----------------|
C|--0-0-0-3-1-1-1-----0-0-4-4-4-1-1-|-0-0-0-3-1-1-1-----0-0-3-3-3-5-5--|

Pre-chorus (1:59)
d|----------------|---------------|---------------|------------------|
A|----------------|---------------|---------------|------------------|
F|----------------|---------------|---------------|------------------|
C|--0-0-00-1-1-11-|-3-3-33-5-5-55-|-0-0-00-1-1-11-|-3-3-33-1-111111--|
G|--0-0-00-1-1-11-|-3-3-33-5-5-55-|-0-0-00-1-1-11-|-3-3-33-1-111111--|
C|--0-0-00-1-1-11-|-3-3-33-5-5-55-|-0-0-00-1-1-11-|-3-3-33-1-111111--|

Chorus (2:11)
d|----------------------------------------|
A|----------------------------------------|
F|--333333-11-----------------------------|
C|--555555-33-55555555-33333333-00000000--|
G|--111111-33-55555555-33333333-00000000--|
C|------------55555555-33333333-00000000--|

d|----------------------------------------|
A|----------------------------------------|
F|--333333-11-----------------------------|
C|--555555-33-55555555-333333333333-0000--|
G|--111111-33-55555555-333333333333-0000--|
C|------------55555555-333333333333-0000--|

d|----------------------------------------|
A|----------------------------------------|
F|--333333-11-----------------------------|
C|--555555-33-55555555-33333333-00000000--|
G|--111111-33-55555555-33333333-00000000--|
C|------------55555555-33333333-00000000--|

d|---------------------------------------|
A|---------------------------------------|
F|--333333-11----------------------------|
C|--555555-33-55555555-3333333333333333--|
G|--111111-33-55555555-3333333333333333--|
C|------------55555555-3333333333333333--|

Bridge (2:36)
d|------|-----|-----|-----|
A|------|-----|-----|-----|
F|------|-----|-----|-----|
C|--0-0-|-0-0-|-0-0-|-0-0-|
G|--0-0-|-0-0-|-0-0-|-0-0-|
C|--0-0-|-0-0-|-0-0-|-0-0-|

d|----------------------------====--|
A|----------------------------=x4=--|
F|----------------------------====--|
C|----------------------------------|
G|----------------------------------|
C|-0-0-3-3-1-1-0-1-1-1-4-4-3-3-1-1--|

Chorus (3:31)
d|------------------------------------------|
A|------------------------------------------|
F|--333333-11-------------------------------|
C|--555555-33-55555555-33333333-00000000----|
G|--111111-33-55555555-33333333-00000000----|
C|------------55555555-33333333-00000000----|
d|------------------------------------------|
A|------------------------------------------|
F|--333333-11-------------------------------|
C|--555555-33-55555555-333333333333-0000----|
G|--111111-33-55555555-333333333333-0000----|
C|------------55555555-333333333333-0000----|
d|------------------------------------------|
A|------------------------------------------|
F|--333333-11-------------------------------|
C|--555555-33-55555555-33333333-00000000----|
G|--111111-33-55555555-33333333-00000000----|
C|------------55555555-33333333-00000000----|
d|------------------------------------------|
A|------------------------------------------|
F|--333333-11-------------------------------|
C|--555555-33-55555555-3333333333333333-----|
G|--111111-33-55555555-3333333333333333-----|
C|------------55555555-3333333333333333-----|

Outro (3:56)
d|---------------|--------------------====--|
A|---------------|--------------------=x5=--|
F|---------------|-10-1010-1212-1212--====--|
C|--1--11--8--88-|-10-1010-1212-1212--------|
G|--1--11--8--88-|-8--8-8--1010-1010--------|
C|--1--11--8--88-|--------------------------|

=====ACOUSTIC=====
Chorus 3 (3:19)
d|--66666666-66666666-55555555-====--|
A|--88888888-66666666-66666666-=x2=--|
F|--88888888-77777777-55555555-====--|
C|--88888888-88888888-77777777-------|
G|--66666666-88888888-77777777-------|
C|-----------------------------------|
Outro (3:56)
d|-66666666-66666666------------------10101010-----------|
A|-88888888-66666666-1010101010101010-11111111-10101010--|
F|-88888888-77777777-1010101010101010-12121212-10101010--|
C|-88888888-88888888-1010101010101010-12121212-10101010--|
G|-66666666-88888888-8-8-8-8-8-8-8-8--10101010-8-8-8-8---|
C|-------------------------------------------------------|
comments
print report bad tab
3 comments total.
0 reply
aaronbob13 wrote on March 23 2009, 12:47 pm

i think the first part of the intro goes like this-
G|----------------3-3-------------------
C|--0-0-0-3-1-1-1-----0-0-4-4-4-1-1

0 reply
sumrandomhobo wrote on April 29 2009, 09:53 pm

Yeah, i think you're right.

0 reply
disaster015 wrote on January 22 2013, 08:36 pm

At the end of the song around 3:56, the power chords are changing into this:

d|--------------------------------------------|
A|--------------------------------------------|
F|--------------------------------------------|
C|--1-1-1-1---8-8-8-8---3-3-3-3--5-5--3-3-3---|
G|--1-1-1-1---8-8-8-8---3-3-3-3--5-5--3-3-3---|
C|--1-1-1-1---8-8-8-8---3-3-3-3--5-5--3-3-3---|

I want to post or [tab]
guest
You may want to rate the tab now too:
select rating
Please do not post tabs as comments. Select "correction" instead!