Oops, an error
Loading. Please wait.

Aeroplane Bass Tab

ver2
ver2

Whole song

More versions @911Tabs.com
9,759 views 27 this week
3 commentsread comments
1 2 3 4 5
worth learning
x 11
Autoscroll
+/-
esc
set tempo
stop
Contributor
WARNING: You are trying to view
                                    content from Ultimate-Guitar.com
                                    in an unauthorized application,
                                    which is prohibited.

                                    Please use an official Ultimate
                                    Guitar Tabs application for iPhone,
                                    iPad or Android to access legitimate
                                    chords, guitar, bass, and drum tabs
                                    from Ultimate-Guitar.com database.

                                    Type "ultimate guitar tabs" in Apple
                                    App Store's or Android Market's
                                    search to find the application.
#----------------------------------PLEASE NOTE---------------------------------#
#This file is the author's own work and represents their interpretation of the #
#song. You may only use this file for private study, scholarship, or research. #
#------------------------------------------------------------------------------#
AEROPLANE - (Bassline)
As recorded by Red Hot Chili Peppers
	

Gtr I (E A D G) - 'Gtr. 1'
Gtr II (E A D G) - 'Gtr. 2'
  Q=98
 4/4
  Gtr I
|---------|---------0/-|-17------(17)-17-|-(17)--------------|
|---------|------------|-----------------|------17-----------|
|---------|------------|-----------------|---------------15--|
|---------|------------|-----------------|-------------------|


|-------------------|---------------|
|-15----(15)--------|---------------|
|-------------------|------------9/-|
|-------------15-10-|-8------(8)----|


|--------------12-|-17------21----19----17--|
|-----------------|------17----17----17-----|
|-15------(15)----|-------------------------|
|-----------------|-------------------------|


|-17------(17)----|
|--------------17-|
|-----------------|
|-----------------|


                                                        ~~~~~~~~~
|----------------------------------------------------|-----------------|
|----------------------------------------------------|-----------------|
|-15h17p15h17p15h17p15h17p15h17p15h17p15h17p15--(15)-|-----------0-1---|
|----------------------------------------------------|-15---(15)-------|


  ~~~~~~~~        ~~~~~~~~~~~~~~~~                               ~~~~~~~~
|-------------------|-------------------|----------------------|---------------|
|-------------------|-------------------|------0-0-0-1-1-1-3-3-|-3---(3)-------|
|-3---(3)------4s10-|-(10)---(10)-0-1---|-3--3-----------------|---------0-1---|
|---------0-1-------|-------------------|----------------------|---------------|


  ~~~~~~~~
|---------------|-------------|-------------|---------------------|
|---------------|-------------|-------------|---------------------|
|-3---(3)-------|----0--1--3--|-3---3-------|---0-0-1-1-3-3-3-3-3-|
|---------0-1---|-3-----------|-------0-1---|-3-------------------|


|-----------------0---------|---------------------|-----------------------0---|
|-----0-0-1-1-2-3---3-1-----|---------------------|-----0-0-1-1---1---3-------|
|-3-3-------------------3-1-|---0-0-1-1-3-3-3-3-3-|-3-3---------3---3---3-----|
|---------------------------|-3-------------------|---------------------------|


  Gtr II
|----------------7------|-----5--5----------------|
|---5--5-------5---5----|----------------3--5---5-|
|--------------------4--|-3-3------5--6-----------|
|-3------5--6-----------|-------------------------|


|----------------7------|---5-----------3-------|
|---5--5-------5---5----|------------3----------|
|--------------------4--|-3-----3-5--------3-3--|
|-3------5--6-----------|-----------------------|


|------------------7------|-----5------------------|
|-----5--5-------5---5----|--------------3---3-----|
|----------------------4--|-3-3-----3-5----------3-|
|-3-3------5--6-----------|------------------------|


|--------------------7---6-|------5-------------8---7-|
|-----5---5------------5---|--------------------------|
|--------------------------|-3--3-----3--5---6----5---|
|-3-3--------5--6--3-------|--------------------------|


|----------------7------|----5--------------------|
|---5--5-------5---5----|---------------3---5---5-|
|--------------------4--|-3-----3-5--6------------|
|-3------5--6-----------|-------------------------|


|----------------7------|----5------------------|
|---5--5-------5---5----|-----------------------|
|--------------------4--|-3-------------1---1---|
|-3------5--6-----------|--------1--4---------3-|


|------------------3--------|------5--5---------------|
|-----5---5-----------------|-----------------3--5--5-|
|------------------------2--|-3--3------5--6----------|
|-3-3--------5--6----6-3----|-------------------------|


|----------------7------|---5-5-------------|----------------|
|---5--5-------5---5----|-------------------|----------------|
|--------------------4--|-3-----5--6-7------|----------------|
|-3------5--6-----------|-------------------|----------------|
|
| Gtr I
|                                             ~~~~~~~~
|-----------------------|-------------------|-0---(0)--------|
|-----------------------|---------------3---|----------------|
|-----------------------|-------------------|---------0-1----|
|-----------------------|-------------------|----------------|


  Gtr I
  ~~~~~~~~        ~~~~~~~~~~~~~~~~                            ~~~~~~~~
|-------------------|-------------------|----------------6--|----------------|
|-------------------|-------------------|------0-0-0-1-1----|-3---(3)--------|
|-3---(3)------4s10-|-(10)---(10)-0-1---|-3--3--------------|---------0-1----|
|---------0-1-------|-------------------|-------------------|----------------|


  ~~~~~~~~
|---------------|-0--2--3--5--|-5-5-5-5-5-5-5--------------|
|---------------|-------------|----------------------------|
|-3---(3)-------|-------------|----------------------------|
|---------0-1---|-------------|---------------0-1-1-1-1-2--|


|-------------------------------|-----------------------0-------|-0-2-3-5-5---|
|-------------------------------|-------0-0-0-1-1-1-2-3---3-0-3-|-------------|
|-------0-0-0-1-1-1-3-3-3-3-3-3-|-3-3-3-------------------------|-------------|
|-3-3-3-------------------------|-------------------------------|-------------|


|-5-7-8-12-12-12-12-12-12-12-12-|
|-------------------------------|
|-------------------------------|
|-------------------------------|


  Gtr II
|----------------7------|-----5--5----------------|
|---5--5-------5---5----|----------------3--5---5-|
|--------------------4--|-3-3------5--6-----------|
|-3------5--6-----------|-------------------------|


|----------------7------|-----5------------------------|
|---5--5-------5---5----|------------------------------|
|--------------------4--|-3-3--------------1---3-------|
|-3------5--6-----------|--------6-1-1--3----3---0-1-2-|


|--------------------7------|-----5------------------|
|-----5---5--------5---5----|--------------5---5---5-|
|---------------1--------4--|-3-3----5--6------------|
|-3-3--------5--------------|------------------------|


|----------------7-----|-----5------8----------|
|---5--5-------5---5---|------------------6----|
|--------------------4-|-3-3-------------------|
|-3------5--6----------|----------8-----6------|


|----------------7------|-----5--5----------------|
|---5--5-------5---5----|----------------3--5---5-|
|--------------------4--|-3-3------5--6-----------|
|-3------5--6-----------|-------------------------|


|----------------7------|-----5---------------------|
|---5--5-------5---5----|-------------------5-------|
|--------------------4--|-3-3------3--6---8-------3-|
|-3------5--6-----------|--------6------------3-6---|


|-------------------------|---5-------------5---6--7---|
|---5-----------8---8-----|-------------3--------------|
|-------------------------|-3-----3-3-5----------------|
|-3-----3-5--6---------6--|----------------------------|


|------------------------|---5---5---------------|-----------------|
|---5-----------8---8----|-----------------------|-----------------|
|------------------------|-3--------5--6-7-------|-----------------|
|-3-----3-5--6---------6-|-----------------------|-----------------|
|
| Gtr I
|                                                   ~~~~~~~~~
|------------------------|-----------------------|-----------------|
|------------------------|-----------------------|-----------------|
|------------------------|-----------------------|-10---(10)-------|
|------------------------|------------------13---|-----------5-6---|


  Gtr I
  ~~~~~~~~        ~~~~~~~~~~~~~~~~
|-------------------|-------------------|
|-------------------|-------------------|
|-3---(3)------4s10-|-(10)---(10)-0-1---|
|---------0-1-------|-------------------|


                           ~~~~~~~~
|--------0-3-0-8-8-8-7-5-|---------------|
|------------------------|-3---(3)-------|
|-3--(3)-----------------|---------0-1---|
|------------------------|---------------|


  ~~~~~~~~                      ~~~~~~~~
|---------------|-------------|---------------------|
|---------------|-------------|---------------------|
|-3---(3)-------|----0--1--3--|-3---(3)-------0-1-3-|
|---------0-1---|-3-----------|---------0-1-3-------|


|-----------------|-------------|------------------|
|-----------------|--5---5------|------------------|
|-6--6-----8--8---|-------------|-6--6-----8--8----|
|-----------------|-------------|------------------|


|-------------|-------------10---|--0--7-10-7-12-10-12-10----|
|--5---5------|------------------|------------------------12-|
|-------------|-6--6-----8-------|---------------------------|
|-------------|------------------|---------------------------|


|----------8-------10--|------7-10--10-7--12-10----|--------------------|
|----------------------|------------------------12-|----------------10--|
|--------------8-------|--10-----------------------|------------8-------|
|-11--11---------------|---------------------------|-11--11-------------|


|------7-10-7-12--15--12-----|-------------------|--0---0---0-----|
|------------------------12--|-------------------|----------------|
|--10------------------------|------------8--8---|----------------|
|----------------------------|-11--11------------|----------------|


   ~~~~~~~~~        ~~~~~~~~           ~~~~~~~~~
|-----------------|-----------------|-----------------|
|-----------------|-----------------|-----------------|
|-----------0-1---|-3---(3)------4/-|-10---(10)-0-1---|
|-15---(15)-------|---------0-1-----|-----------------|


  ~                          ~~~~~~~~        ~~~~~~~~
|---------------------1s5--|---------------|---------------|
|--------------------------|-3---(3)-------|---------------|
|-3------1-0----10s3-------|---------0-1---|-3---(3)-------|
|---3s8-------3------------|---------------|---------0-1---|


|-------------|-------------|-----3--4---------0-(0)--------|
|-------------|-------------|------------3---0-------3-0----|
|----0--1--3--|-3---3-------|-------------------------------|
|-3-----------|-------0-1---|-3-----------------------------|


|------------------------------------------|-----------------------|
|------------------------------------------|-----------------------|
|-3------1-(1)---3-(3)-1-------------------|-----------------------|
|------3-------3---------3-0-(0)-0-1-(1)---|-3-3-1-1--3-(3)-4s15s4-|


|-------------------------------------------|
|-------------------------------------0-----|
|-3-(3)-3-3-1-(1)-1-1-----3-----4-----------|
|----------------------3-----3-----3-----1--|


|-----0---------3-----|-----------------------|
|----------3----------|-----------------------|
|-------------------4-|-3----1----3-1---------|
|-3-------------------|---------------3-0-0-1-|


|-------------------3-(3)-4-------------------------|
|-----------5-(5)-----------5-(5)---2-(2)-----------|
|---------5-------5---------------5---------5-(5)---|
|-3-(3)-----------------------------------3-------3-|


|---------5------------------|
|----------------------------|
|-3-(3)----------4s14-14s3---|
|----------------------------|


|---------------------|---------------------|-0--0-2--2-3--3-4--4--|
|---------------------|------0--0-1--1-3--3-|----------------------|
|------0--0-1--1-2--2-|-3--3----------------|----------------------|
|-3--3----------------|---------------------|----------------------|


|-5--5-7--7-8--8-10--10-|-12-(12)-12-10-(10)-10-8--8-7--7-|
|-----------------------|---------------------------------|
|-----------------------|---------------------------------|
|-----------------------|---------------------------------|


|-5-(5)-5-5-3-(3)-3-3-2-(2)-2-2-1-(1)-1-1-|
|-----------------------------------------|
|-----------------------------------------|
|-----------------------------------------|


|-0-(0)-0-0-------------------------------|
|-----------3-(3)-3-3-1-(1)-1-1-0-(0)-0-0-|
|-----------------------------------------|
|-----------------------------------------|


|-----------------------------------------|---------------------|
|-----------------------------------------|---------------------|
|-3-(3)-3-3-1-(1)-1-1-0-(0)-0-0-----------|------0--0-1--1-2--2-|
|-------------------------------4-(4)-4-4-|-3--3----------------|


|-----------------------------------------|
|-----------0-(0)-0-0-1-(1)-1-1-3-(3)-3-3-|
|-3-(3)-3-3-------------------------------|
|-----------------------------------------|


|-0-(0)-0-2-(2)---2-3-(3)---3-4-(4)---4-|
|---------------------------------------|
|---------------------------------------|
|---------------------------------------|


|-5-(5)-5-5-7-(7)---7-8-(8)---8-10-(10)---10-|
|--------------------------------------------|
|--------------------------------------------|
|--------------------------------------------|


|-12-(12)-12-10-(10)-10-8-(8)-8-7-(7)-7-|
|---------------------------------------|
|---------------------------------------|
|---------------------------------------|


|-8-(8)-7-5-7-(7)-5-3-5-(5)-3-2-3-(3)-2-1-|
|-----------------------------------------|
|-----------------------------------------|
|-----------------------------------------|


|-0-(0)---0-------------------------------|
|-----------3-(3)---3-1-(1)---1-0-(0)---0-|
|-----------------------------------------|
|-----------------------------------------|


                                                     ~~~~~~~~~~
|-----------------------------------------|-------------|---------|
|-----------------------------------------|-------------|---------|
|-3-(3)-3-3-1-(1)-1-1-0-(0)-0-0-----------|-------------|---------|
|-------------------------------4-(4)-4-4-|-3----3s=15--|-(15)----|


    ~~~~~~~~~~~~~~~~~~~~~~~~~~~~~~~~
|-------------|------------------------*|
|-------------|------------------------*|
|-------------|------------------------*|
|-(15)--------|-(15)------(15)-(15)----*|


any question nobbru@libero.it
comments
print report bad tab
3 comments total.
0 reply
homo wrote on March 17 2007, 05:55 am

not working for me the other one is better

0 reply
Wudarbassist83 wrote on January 29 2008, 10:53 am

the verses are completely off

0 reply
jk41 wrote on March 15 2011, 11:28 pm

the whole thing is loco

I want to post or [tab]
guest
You may want to rate the tab now too:
select rating
Please do not post tabs as comments. Select "correction" instead!