Oops, an error
Loading. Please wait.

Annie Wants A Baby Tab

ver4
ver4

Intro

Whole song

More versions @911Tabs.com
3,039 views 30 this week
no commentswrite comment
1 2 3 4 5
excellent!
x 10
Autoscroll
+/-
esc
set tempo
stop
Contributor
WARNING: You are trying to view
                                    content from Ultimate-Guitar.com
                                    in an unauthorized application,
                                    which is prohibited.

                                    Please use an official Ultimate
                                    Guitar Tabs application for iPhone,
                                    iPad or Android to access legitimate
                                    chords, guitar, bass, and drum tabs
                                    from Ultimate-Guitar.com database.

                                    Type "ultimate guitar tabs" in Apple
                                    App Store's or Android Market's
                                    search to find the application.
Annie Wants A Baby
Red Hot Chili Peppers
Album: I'm With You
Tabbed by Billy Scobbie
YouTube: highguy19

Standard Tuning


Verse 1

e|------------------------------------------------------------|
B|------------------------------------------------------------|
G|-10~~---12b(14)---------------10~~---12b(14)----------------|
D|-----------------12---------------------------12------------|
A|---------------------10h12------------------------10h12--10-|
E|------------------------------------------------------------|

e|------------------------------------------------------------|
B|------------------------------------------------------------|
G|-----------------------------------------------------------\|
D|--------10-------------------------10----------------------\|
A|-10/12-----12\---8h10--8----10/12-----12\---8h10--8-8h10-8-\|
E|------------------------------------------------------------|

e|------------------------------------------------------------|
B|------------------------------------------------------------|
G|-10~~---12b(14)---------------10~~---12b(14)----------------|
D|-----------------12------.--------------------12------------|
A|---------------------10h12------------------------10h12--10-|
E|------------------------------------------------------------|

e|-----------------------------------------------------------------|
B|-----------------------------------------------------------------|
G|-----------------------------------------------------------------|
D|--------10---------------------------10--------------------------|
A|-10/12-----12\---8h10--8~~--8--10/12-----12\---8b(10)8b(10)bd(8)-|
E|-----------------------------------------------------------------|

Pre-Chorus

e|-----10----10--10----13----13--13----10----10--10----10----10--10-|
B|---11----11--------10----10--------11----11--------11----11-------|
G|-12----12----12--12----12----12--12----12----12--12----12----12---|
D|------------------------------------------------------------------|
A|------------------------------------------------------------------|
E|------------------------------------------------------------------|

e|-----10----10--10----13----13---|
B|---11----11--------10----10-----|
G|-12----12----12--12----12----12-|
D|--------------------------------|
A|--------------------------------|
E|--------------------------------|

e|-----------------------------------------------------|
B|-10-10-10-10-10-10-10-10-10-10-10-10-10-10-10-10-10--|
G|-12-12-12-12-12-12-12-12-12-11-11-11-11-11-11-11-11--|
D|-12-12-12-12-12-12-12-12-12-12-12-12-12-12-12-12-12--|
A|--------------------------------^--^--^--^--^--^--^--|
E|-----------------------------------------------------|

Chorus

e|------5-------5--------6-------------------------------------------|
B|----6---6---6--------8---8-------------8---------------7\6----6----|
G|--7-------7--------7-------7---------8---8-----------6-------------|
D|-----------------5-----------5-----8-------8-------8-------7-----7-|
A|---------------------------------6-----------6---------------------|
E|-------------------------------------------------------------------|

e|--------------------------------6-------------------------------------|
B|--6--8b(10)bd8--6--8--------------8-----------8--------------7-----6\-|
G|----------------------5h7-----7-----7-----------8----------6-----5----|
D|----------------------------5---------5-----8-----8-------------------|
A|------------------------------------------6---------6---/9-----8------|
E|----------------------------------------------------------------------|

e|----1----1--1-----3--3-3--------------2-2-2--1-1-1--|
B|----3----3--3-----3--3-3---4--4--4----2-2-2--1-1-1--|
G|-2--2----2--2-----3--3-3---3--3--3----3-3-3--2-2-2--|
D|-0--0----0--0-----5--5-5---5--5--5----4-4-4--3-3-3--|
A|----------------5-5--5-5---6--6--6----4-4-4--3-3-3--|
E|----------------3----3-3--------------2-2-2--1-1-1--|

e|------------------------------------------------------2-2-2--1-1-1-----|
B|-----6--6-8b(10)bd8-6-8---------------------4--4--4---2-2-2--1-1-1--6--|
G|-----7------------------5h7-----7--7-7-7----3--3--3---3-3-3--2-2-2--7--|
D|-7---7-----------------------5--5--5-5-5----5--5--5---4-4-4--3-3-3--8--|
A|-5---5--------------------------------------6--6--6---4-4-4--3-3-3--8--|
E|------------------------------------------------------2-2-2--1-1-1--6--|

Solo 1

e|---.--------------.----------------|
B|--10--10--------10----13-10--------|
G|---------10-10--------------10-10--|
D|-----------------------------------|
A|-----------------------------------|
E|-----------------------------------|

e|-----------------------------------------------------|
B|-----------------------------------------------------|
G|-----------------------------------------------------|
D|-(14)bd12--10b(12)(10)(12)(10)-----------------10----|
A|-------------------------------10/12--12-12-12----12-|
E|-----------------------------------------------------|

e|------------------------------------------------------------|
B|------------------------------------------------------------|
G|-10~~---12b(14)---------------10~~---12b(14)----------------|
D|-----------------12------.--------------------12------------|
A|---------------------10h12------------------------10h12--10-|
E|------------------------------------------------------------|

e|--------------------------------------------------------------------|
B|-----------------------------------------(10)-----------------------|
G|-----------------------------------------(10)-----------------------|
D|--------10-------------------------------(10)-----------------------|
A|-10/12-----12\---8h10--8h10--8---8--10/12----12\---8b(10)-8b(10)(8)-|
E|--------------------------------------------------------------------|

Bridge

e|---------------------13-13-13-13-13-13--|
B|---------------------13-13-13-13-13-13--|
G|-9~---12b(14)--10-----------------------|
D|----------------------------------------|
A|----------------------------------------|
E|----------------------------------------|

Verse 2

e|--------------------------------------------------------------|
B|--------------------------------------------------------------|
G|-10~~---12b(14)-----------------10~~---12b(14)----------------|
D|-----------------12----------------------------12-------------|
A|---------------------10h12--12----------------------10h12--10-|
E|--------------------------------------------------------------|

e|--------------------------------------------------------------------|
B|--------10-------------------------------(10)-----------------------|
G|--------10-------------------------------(10)-----------------------|
D|--------10--------------------------------10------------------------|
A|-10/12-----12\---8h10--8~~---8-8-8--10/12-----12\---8b(10)8b(10)(8)-|
E|--------------------------------------------------------------------|

Pre-Chorus 2

e|-----10----10--10----13----13--13----10----10--10----10----10--10-|
B|---11----11--------10----10--------11----11--------11----11-------|
G|-12----12----12--12----12----12--12----12----12--12----12----12---|
D|------------------------------------------------------------------|
A|------------------------------------------------------------------|
E|------------------------------------------------------------------|
 |
 |Gtr 2
 |
e|--10----10/13---------15b(17)(15)-13-15--------18b(20)(18)--15----|
B|--------------13--------------------------------------------------|
G|------------------------------------------------------------------|
D|------------------------------------------------------------------|
A|------------------------------------------------------------------|
E|------------------------------------------------------------------|
 |
 |Gtr 3
 |
e|-----------------------------------------------13b(15)(13)--10----|
B|--11----11/13---------15b(17)(15)-13------------------------------|
G|--------------12---------------------12---------------------------|
D|------------------------------------------------------------------|
A|------------------------------------------------------------------|
E|------------------------------------------------------------------|

e|-----10----10--10----13----13---|
B|---11----11--------10----10-----|
G|-12----12----12--12----12----12-|
D|--------------------------------|
A|--------------------------------|
E|--------------------------------|
 |
 |Gtr 2
 |
e|--10----10/13-------15b(17)(15)-13-15-|
B|--------------13----------------------|
G|--------------------------------------|
D|--------------------------------------|
A|--------------------------------------|
E|--------------------------------------|
 |
 |Gtr 3
 |
e|--------------------------------------|
B|--11----11/13-------15b(17)(15)-13-15-|
G|--------------12----------------------|
D|--------------------------------------|
A|--------------------------------------|
E|--------------------------------------|

e|---------------------------------------------------|
B|-10-10-10-10-10-10-10-10-10-10-10-10-10-10-10-10---|
G|-12-12-12-12-12-12-12-12-12-11-11-11-11-11-11-11---|
D|-12-12-12-12-12-12-12-12-12-12-12-12-12-12-12-12---|
A|--------------------------------^--^--^--^--^--^---|
E|---------------------------------------------------|

Chorus 2

e|----1----1--1-----3--3-3--------------2-2-2--1-1-1--|
B|----3----3--3-----3--3-3---4--4--4----2-2-2--1-1-1--|
G|-2--2----2--2-----3--3-3---3--3--3----3-3-3--2-2-2--|
D|-0--0----0--0-----5--5-5---5--5--5----4-4-4--3-3-3--|
A|----------------5-5--5-5---6--6--6----4-4-4--3-3-3--|
E|----------------3----3-3--------------2-2-2--1-1-1--|

e|-----------------------------------------------------2-2-2--1-1-1-|
B|-----6--6-8b(10)bd8-6-8---------8--8-8-----4--4--4---2-2-2--1-1-1-|
G|-----7------------------5h7-----7--7-7-----3--3--3---3-3-3--2-2-2-|
D|-7---7-----------------------5--5--5-5-----5--5--5---4-4-4--3-3-3-|
A|-5---5-------------------------------------6--6--6---4-4-4--3-3-3-|
E|-----------------------------------------------------2-2-2--1-1-1-|

e|----1----1--1-----3--3-3--------------2-2-2--1-1-1--|
B|----3----3--3-----3--3-3---4--4--4----2-2-2--1-1-1--|
G|-2--2----2--2-----3--3-3---3--3--3----3-3-3--2-2-2--|
D|-0--0----0--0-----5--5-5---5--5--5----4-4-4--3-3-3--|
A|----------------5-5--5-5---6--6--6----4-4-4--3-3-3--|
E|----------------3----3-3--------------2-2-2--1-1-1--|

e|---------------------------------6--6-6-6--------------2-2-2--1-1-1-----|
B|-----6-x-6-8b(10)bd8-6-8---------8--8-8-8----4--4--4---2-2-2--1-1-1--6--|
G|-----7-------------------5h7-----7--7-7-7----3--3--3---3-3-3--2-2-2--7--|
D|-7-7-7------------------------5--5--5-5-5----5--5--5---4-4-4--3-3-3--8--|
A|-5-5-5---------------------------------------6--6--6---4-4-4--3-3-3--8--|
E|-------------------------------------------------------2-2-2--1-1-1--6--|

Outro

e|---------------------------------------------------------------|
B|---------------------------------------------------------------|
G|---------------------------------------------------------------|
D|---------------------------------------------------------------|
A|---5^~-------------------------------------5^~--/7--8b(10)(8)--|
E|--------3b(4)(3)p1-3/6--6b(8)(6)-5b(6)(5)----------------------|

e|---------------------------------------------------------------|
B|---------------------------------------------------------------|
G|---------------------------------------------------------------|
D|-------------------------------------10------------------------|
A|--8b(10)(8)-10p8h10b(12)(10)-8h10/12----12/---8b(10)(8)(10)(8)-|
E|---------------------------------------------------------------|

e|------------------------------------------------------------------|
B|------------------------------------------------------------------|
G|------------------------------------------------------------------|
D|------------------------------------------10----10h12~-------12---|
A|----------------------------8----8--10/12----12---------10--------|
E|-8/10--8--10--8--10----8-10---10----------------------------------|

e|-----10----10--10----13----13--13----10--|
B|---11----11--------10----10--------11----|
G|-12----12----12--12----12----12--12------|
D|-----------------------------------------|
A|-----------------------------------------|
E|-----------------------------------------|
comments
print report bad tab
I want to post or [tab]
guest
You may want to rate the tab now too:
select rating
Please do not post tabs as comments. Select "correction" instead!