Oops, an error
Loading. Please wait.

By The Way Bass Tab

ver1
308,073 views 396 this week
29 commentsread comments
1 2 3 4 5
excellent!
x 87
Autoscroll
+/-
esc
set tempo
stop
Contributor
Difficulty
intermediate
Hey! There's an official Ultimate Guitar app which is ideal
for learning songs when you're away from computer. Get the app
WARNING: You are trying to view
                                    content from Ultimate-Guitar.com
                                    in an unauthorized application,
                                    which is prohibited.

                                    Please use an official Ultimate
                                    Guitar Tabs application for iPhone,
                                    iPad or Android to access legitimate
                                    chords, guitar, bass, and drum tabs
                                    from Ultimate-Guitar.com database.

                                    Type "ultimate guitar tabs" in Apple
                                    App Store's or Android Market's
                                    search to find the application.
This record is very rhythmic, and is a very good Tab to just
play along with, in other words fun to sight read. I'v always
wanted to tab a Chili Pepper album, Flea's Improv. is very fun
to play, and this is my chance. So here is the "By the Way Album
Bass Tab"

All of the album is in standard, Unless you play By The Way in
Drop-D

==========Song Index==========

1. By the Way
2. Universally Speaking
3. This is the Place
4. Dosed
5. Dont Forget Me
6. The Zephyr Song
7. Can't Stop
8. I Could Die for You
9. Midnight
10.Throw Away Your Television
11. Cabron
12. Tear
13. On Mercury
14. Minor Thing
15. Warm Tape
16. The Venice Queen


____________________________________________________________________________
===============================(( By the Way))==============================
------------------------------_________________-----------------------------
============================================================================
____________________________________________________________________________

For this song You have a choice to go into Drop-D or not, Either
Way I have both ways posted. This Song is 100% Correct, so don't
Worry about playing the wrong thing.

G[------------------------------------------------------------------------]
D[-15-15-15-15-15-15-15-15-14-14-14-14-14-14-14-14------------------------]
A[-------------------------------------------------12-12-12-12-12-12-12-12]
E[------------------------------------------------------------------------]

G[-------------------------17-17-17-17-17-17-17-17------------------------]
D[-15-15-15-15-15-15-15-15-------------------------12-12-12-12-12-12-12-12]
A[------------------------------------------------------------------------]
E[------------------------------------------------------------------------]

G[-----------------------------------------------------------------]
D[-3-3-3-3-3-3-3-3-2-2-2-2-2-2-2-2---------------------------------]
A[---------------------------------0-0-0-0-0-0-0-0-0-0-0-0-0-0-0-0-]
E[-----------------------------------------------------------------]

G[-12/17-17-17-17-17-17-17-17-17-17-17-17-17-17-17-14-14-14-14-14-14-14-14-]
D[-------------------------------------------------------------------------]
A[-------------------------------------------------------------------------]
E[-------------------------------------------------------------------------]

Now if you want to take the time to tune this to drop D you can, But
If you really don't want to, Then  just play like I show. (If you want
to tune to drop D just play open on your low D String.)

   (Standard Tuning)
G]-------------------------------------------------------------]
D]---------3-------------------3--------------------3----------]
A]-5-5-3h5---x5-0h3p0--5-5-3h5---x5-3p0-----5-5-3h5---x5-0h3p0-]
E]--------------------------------------3p0--------------------]

G[------------------------]\
D[---------3--------------]\\ \_____Four Times
A[-5-5-3h5--55-66-6-6-----]\\ /
E[------------------------]\\/

   (Drop-D Tuning)
G[-------------------------------------------------------------]
D[---------3------------------3--------------------3-----------]
A[-----3h5---x5-0h3p0-----3h5---x5-3p0---------3h5---x55-0h3p0-]
D[-0-0----------------0-0--------------5-3-0-0-----------------]

G[-------------------------]\
D[---------3---------------]\\ \_____Four Times
A[------3h5--55-66-6-6-----]\\ /
D[--0-0--------------------]\\/

G[---------------23-5-55-5-55-5-55-7-77-7-777-7-7-77-7-77-77-7-775------]
D[-3-33-3-33-3-3---------------------------------------------------75---]
A[--------------------------------------------------------------------7-]
E[----------------------------------------------------------------------]

G[---------------5-55-5-55-5-5-2-22-2-22-22-2-22-2-3-33-3-]
D[-3-33-3-33-3-3------------------------------------------]
A[--------------------------------------------------------]
E[--------------------------------------------------------]

(Standard Tuning)
G]-------------------------------------------------------------]
D]---------3-------------------3--------------------3----------]
A]-5-5-3h5---x5-0h3p0--5-5-3h5---x5-3p0-----5-5-3h5---x5-0h3p0-]
E]--------------------------------------3p0--------------------]

G[------------------------]\
D[---------3--------------]\\ \_____Four Times
A[-5-5-3h5--55-66-6-6-----]\\ /
E[------------------------]\\/

   (Drop-D Tuning)
G[-------------------------------------------------------------]
D[---------3------------------3--------------------3-----------]
A[-----3h5---x5-0h3p0-----3h5---x5-3p0---------3h5---x55-0h3p0-]
D[-0-0----------------0-0--------------5-3-0-0-----------------]

G[-------------------------]\
D[---------3---------------]\\ \_____Four Times
A[------3h5--55-66-6-6-----]\\ /
D[--0-0--------------------]\\/

G[------------------------------------------------------------------------]
D[-15-15-15-15-15-15-15-15-14-14-14-14-14-14-14-14------------------------]
A[-------------------------------------------------12-12-12-12-12-12-12-12]
E[------------------------------------------------------------------------]

G[-------------------------17-17-17-17-17-17-17-17------------------------]
D[-15-15-15-15-15-15-15-15-------------------------12-12-12-12-12-12-12-12]
A[------------------------------------------------------------------------]
E[------------------------------------------------------------------------]

G[-----------------------------------------------------------------]
D[-3-3-3-3-3-3-3-3-2-2-2-2-2-2-2-2---------------------------------]
A[---------------------------------0-0-0-0-0-0-0-0-0-0-0-0-0-0-0-0-]
E[-----------------------------------------------------------------]

G[-17-17-17-17-17-17-17-17-17-17-17-17-17-17-17-17-21-21-21-21-21-21-21-21-]
D[-------------------------------------------------------------------------]
A[-------------------------------------------------------------------------]
E[-------------------------------------------------------------------------]

(Standard Tuning)
G]-------------------------------------------------------------]
D]---------3-------------------3--------------------3----------]
A]-5-5-3h5---x5-0h3p0--5-5-3h5---x5-3p0-----5-5-3h5---x5-0h3p0-]
E]--------------------------------------3p0--------------------]

G[------------------------]\
D[---------3--------------]\\ \_____Four Times
A[-5-5-3h5--55-66-6-6-----]\\ /
E[------------------------]\\/

   (Drop-D Tuning)
G[-------------------------------------------------------------]
D[---------3------------------3--------------------3-----------]
A[-----3h5---x5-0h3p0-----3h5---x5-3p0---------3h5---x55-0h3p0-]
D[-0-0----------------0-0--------------5-3-0-0-----------------]

G[-------------------------]\
D[---------3---------------]\\ \_____Four Times
A[------3h5--55-66-6-6-----]\\ /
D[--0-0--------------------]\\/

G[---------------23-5-55-5-55-5-5-7-77-7-77-7-7-7-77-7-55--------]
D[-3-33-3-33-3-3-----------------------------------------77-5-5--]
A[---------------------------------------------------------------]
E[---------------------------------------------------------------]

G[---------------5-55-5-55-5-5-2-22-2-22-22-2-22-2-3-33-2-0----]
D[-3-33-3-33-3-3--------------------------------------------3-2]
A[-------------------------------------------------------------]
E[-------------------------------------------------------------]

G[---------------2h3-5-55-5-55-5-3h5-7-77-7-77-7-7-7-77-7-77-7h9p7-]
D[-3-33-3-33-3-3---------------------------------------------------]
A[-----------------------------------------------------------------]
E[-----------------------------------------------------------------]

G[---------------5-55-5-55-5-5-2-22-2-22-22-2-22-2-3-33-3-----]
D[-3-33-3-33-3-3------------------------------------------(3)-]
A[------------------------------------------------------------]
E[------------------------------------------------------------]

*If your in Standard, Just stay in standard for the next song*
*If Your in Drop-D Go back into Standard for the next song*

____________________________________________________________________________
===========================((Universally Speaking))=========================
------------------------------_________________-----------------------------
============================================================================
____________________________________________________________________________

The only thing you really got to watch out for in this song
(If your Sightreading) is the outro and the Bridge other than
that though this is a cool smooth song. Very fun to play.

G[-7--7--7--7--7--7----6-7---7--7--7--7--7----6-7-]
D[-------------------7----------------------7-----]
A[--5--5--5--5--5--5-------7--7--7--7--7--7-------]
E[------------------------------------------------]

Play that riff till Anthony Says "Simply put I saw your love string
                                          Flow"
  (Play smoothly, and silently)
   (Bridge)
G[----------------14---16h18-16-14-----------------14---/18-16-14------]
D[-------11h12-14---14------------14------11h12-14---14----------14----]
A[-12-12-----------------------------11-11--------------------------11-]
E[---------------------------------------------------------------------]

G[------------------------]
D[---------------9-9-9----]
A[-10-10-1010-10-------9/-]
E[------------------------]

G[----------------14---16h18-16-14-----------------14---/18-16-14------]
D[-------11h12-14---14------------14------11h12-14---14----------14----]
A[-12-12-----------------------------11-11--------------------------11-]
E[---------------------------------------------------------------------]

G[--------------------------------------------------------------------]
D[---------------9-9-9----7-7-77-7-7-7-7h9-9-99-9-99------------------]
A[-10-10-1010-10-------9/----------------------------7----------------]
E[-----------------------------------------------------0--------------]

  Play during the water Effect Solo
G[-7--7--7--7--7--7----6-7---7--7--7--7--7----6-7-]
D[-------------------7----------------------7-----] X2
A[--5--5--5--5--5--5-------7--7--7--7--7--7-------]
E[------------------------------------------------]


G[-7--7--7--7--7--7----6-7---7--7--7--7--7----6-7-]
D[-------------------7----------------------7-----]
A[--5--5--5--5--5--5-------7--7--7--7--7--7-------]
E[------------------------------------------------]
Play that riff till Anthony Says "Simply put I saw your love string
                                          Flow"

(Play smoothly, and silently)

G[----------------14---16h18-16-14-----------------14---/18-16-14------]
D[-------11h12-14---14------------14------11h12-14---14----------14----]
A[-12-12-----------------------------11-11--------------------------11-]
E[---------------------------------------------------------------------]

G[------------------------]
D[---------------9-9-9----]
A[-10-10-1010-10-------9/-]
E[------------------------]

G[----------------14---16h18-16-14-----------------14---/18-16-14------]
D[-------11h12-14---14------------14------11h12-14---14----------14----]
A[-12-12-----------------------------11-11--------------------------11-]
E[---------------------------------------------------------------------]

G[--------------------------------------------------------------------]
D[---------------9-9-9----7-7-77-7-7-7-7h9-9-99-9-99------------------]
A[-10-10-1010-10-------9/----------------------------7----------------]
E[-----------------------------------------------------0--------------]

  (Play more intensly)
G[-7--7--7--7--7--7----6-7---7--7--7--7--7----6-7-]
D[-------------------7----------------------7-----]
A[--5--5--5--5--5--5-------7--7--7--7--7--7-------]
E[------------------------------------------------]

   When anthony Says "Lets Go!"
Go into this

 (Outro)
G[14-----14-----14---12-----12-----12---12-----12-----12-------------------]
D[--14-----14-----14---12-----12-----12---12-----12-----12-12----12----12--]
A[----12-----12----------10-----10----------10-----10--------12----12----12]
E[-------------------------------------------------------------10----10----]

G[14-----14-----14---12-----12-----12---12-----12-----12-------------------]
D[--14-----14-----14---12-----12-----12---12-----12-----12-12----12----12--]
A[----12-----12----------10-----10----------10-----10--------12----12----12]
E[-------------------------------------------------------------10----10----]

G[14-----14-----14---12-----12-----12---12-----12-----12-------------------]
D[--14-----14-----14---12-----12-----12---12-----12-----12-12----12----12--]
A[----12-----12----------10-----10----------10-----10--------12----12----12]
E[-------------------------------------------------------------10----10----]

G[-14------14------12------12--------------------------------]
D[---14--14--14--14--12--12--12--12--------------------------]
A[-----12------12------10------10----------------------------]
E[----------------------------------10-----------------------]
                                     \_______________________/
                                      Let the note Ring

____________________________________________________________________________
============================((This Is The Place))===========================
------------------------------_________________-----------------------------
============================================================================
____________________________________________________________________________
This was a very easy song to tab, and is very easy to play. By far easiest
on the album.


This is the main Riff you play
G[------55----------55-2x22-------------------------]
D[-7-77----x55-3-33------------77-----------55------]
A[--------------------------55x--5/8-8--3-33--/5-55-]
E[--------------------------------------------------]

(2:24) Dont play while this is sung

I saw you out there yesterday
What did you want to say
A perfect piece of DNA
Caught in a flashing ray
I caught you out there in the fray
What did you want to say
A master piece of DNA
Caught in a flashing ray

I caught you out there in the fray
What did you want to say
A master piece of DNA
Caught in a flashing ray

Com back in (2:28)
G[------55----------55-2x22-------------------------]
D[-7-77----x55-3-33------------77-----------55------]
A[--------------------------55x--5/8-8--3-33--/5-55-]
E[--------------------------------------------------]

Outro
G[-----5------------------------------------]
D[-7-7--------------------------------------]
A[------------------------------------------]
E[------------------------------------------]
       \____________________________________/
         Let the note ring on.


____________________________________________________________________________
==================================((Dosed))=================================
------------------------------_________________-----------------------------
============================================================================
____________________________________________________________________________

Come in after the guitar intro
G[-----------------------------------------------------------------]
D[-----4-5-----4-5-----4-5-----7-5-----4-5-----4-5-----4-5-----7-5-]
A[-3-3-----3-3-----5-5-----7-7-----3-3-----3-3-----5-5-----7-7-----]
E[-----------------------------------------------------------------]

G[-----------------------------------------------------------------]
D[-----4-5-----4-5-----4-5-----7-5-----4-5-----4-5-----4-5-----7-5-]
A[-3-3-----3-3-----5-5-----7-7-----3-3-----3-3-----5-5-----7-7-----]
E[-----------------------------------------------------------------]

G[-----------------------------------------------------------------]
D[-----4-5-----4-5-----4-5-----7-5-----4-5-----4-5-----4-5-----7-5-]
A[-3-3-----3-3-----5-5-----7-7-----3-3-----3-3-----5-5-----7-7-----]
E[-----------------------------------------------------------------]

G[---------------------------------------------------------7h9-7---]
D[-----4-5-----4-5-----4-5-----7-5-----4-5-----4-5-----4-5-------9-]
A[-3-3-----3-3-----5-5-----7-7-----3-3-----3-3-----5-5-------------]
E[-----------------------------------------------------------------]

G[----------------------------------]
D[-----4-5-----4-5-----4-5----------]
A[-3-3-----3-3-----5-5-----5h7-5----]
E[-------------------------------7\-]

G[-----------------------------------------------------------------]
D[-----4-5-----4-5-----4-5-----7-5-----4-5-----4-5-----4-5-----7-5-]
A[-3-3-----3-3-----5-5-----7-7-----3-3-----3-3-----5-5-----7-7-----]
E[-----------------------------------------------------------------]

G[-----------------------------------------------------------------]
D[-----4-5-----4-5-----4-5-----7-5-----4-5-----4-5-----4-5-----7-5-]
A[-3-3-----3-3-----5-5-----7-7-----3-3-----3-3-----5-5-----7-7-----]
E[-----------------------------------------------------------------]

G[-------------------------------]
D[-----4-5-----4-5---------2-2-2-]
A[-3-3-----3-3-----5-5-----------]
E[---------------------2-3-------]

G[----------------------------------------------------------------/7-777]
D[----------9h10-12-12--12---14-14--14---10-10-109----------------------]
A[-/10-10-10----------14--14------14--14-----------14-10-10---10--------]
E[----------------------------------------------------------10--10------]

G[------------------]
D[------------------]
A[-7-77-7/5-5/3-3-2-]
E[------------------]

G[----------------------------------------------------------------/7-777-]
D[---------9h10-12-12-1212-14-14/16\14-12-10-1099------------------------]
A[-10-10-10---------------------------------------14-10-101010-10--------]
E[-----------------------------------------------------------------------]

G[--------------------]
D[---4h5-4------------]
A[-7-------75-3-3-33--]
E[--------------------]

G[-----------------------------------------------------------------]
D[-----4-5-----4-5-----4-5-----7-5-----4-5-----4-5-----4-5-----7-5-]
A[-3-3-----3-3-----5-5-----7-7-----3-3-----3-3-----5-5-----7-7-----]
E[-----------------------------------------------------------------]

G[-----------------------------------------------------------------]
D[-----4-5-----4-5-----4-5-----7-5-----4-5-----4-5-----4-5-----7-5-]
A[-3-3-----3-3-----5-5-----7-7-----3-3-----3-3-----5-5-----7-7-----]
E[-----------------------------------------------------------------]

G[-----------------------------------------------------------------]
D[-----4-5-----4-5-----4-5-----7-5-----4-5-----4-5-----4-5-----7-5-]
A[-3-3-----3-3-----5-5-----7-7-----3-3-----3-3-----5-5-----7-7-----]
E[-----------------------------------------------------------------]

G[----------------------------------]
D[-----4-5-----4-5-----4-5----------]
A[-3-3-----3-3-----5-5-----7-7-7----]
E[----------------------------------]

G[---------------------------------------------------------------------]
D[-----------910-12-12--12-14-16/17\16-14-10-9-------------------------]
A[-10-1010-10---------14-----------------------14-10-1010-1210-5-55-55-]
E[---------------------------------------------------------------------]

G[---------------]
D[---------------]
A[-7-77-5-3-33-3-]
E[------------3--]

G[--------------------------------------------------------------]
D[---------910-12-1212--12-14-161716-14-10-1010-12-109--5-575---]
A[-10-1010------------14--------------------------------------7-]
E[--------------------------------------------------------------]

G[-------------------------------55555555555555555-]
D[-5-555-5-55-5-5-555-5-5-55-5-5-------------------]
A[-------------------------------------------------]
E[-------------------------------------------------]

G[-5----5----7----7h9-7---5-----5-----7------7h9p7--]
D[--545--545--545------9----545---545---4-5-7-----7-]
A[--------------------------------------------------]
E[--------------------------------------------------]

G[-5----5----7----9-7---5-----5-----7-------7-5---]
D[--545--545--545----9----545---545---4-5-7-----7-]
A[------------------------------------------------]
E[------------------------------------------------]

G[-5----5----7----7h9-7---]
D[--545--545--545------9\-]
A[------------------------]
E[------------------------]

G[-----------------------------------------------------------------]
D[-----4-5-----4-5-----4-5-----7-5-----4-5-----4-5-----4-5-----7-5-]
A[-3-3-----3-3-----5-5-----7-7-----3-3-----3-3-----5-5-----7-7-----]
E[-----------------------------------------------------------------]

G[---------------------------------------------------------9---9--]
D[-----4-5-----4-5-----4-5-----7-5-----4-5-----4-5-----4-5---9----]
A[-3-3-----3-3-----5-5-----7-7-----3-3-----3-3-----5-5------------]
E[----------------------------------------------------------------]

G[---------------------------------------------------------------------]
D[-----------910-12-12--12-14-16/17\16-14-10-9-------------------------]
A[-10-1010-10---------14-----------------------14-10-1010-1210-5-55-55-]
E[---------------------------------------------------------------------]

G[-9-99-9-7-5-555-555]
D[-------------------]
A[-------------------]
E[-------------------]

G[---------------------------------------------------------------------]
D[-----------910-12-12--12-14-16/17\16-14-10-9-------------------------]
A[-10-1010-10---------14-----------------------14-10-1010-1210-5-55-55-]
E[---------------------------------------------------------------------]

G[-------------------------------55555555555555555-]
D[-5-555-5-55-5-5-555-5-5-55-5-5-------------------]
A[-------------------------------------------------]
E[-------------------------------------------------]

G[-----------------------------------------------------------------]
D[-----4-5-----4-5-----4-5-----7-5-----4-5-----4-5-----4-5-----7-5-]
A[-3-3-----3-3-----5-5-----7-7-----3-3-----3-3-----5-5-----7-7-----]
E[-----------------------------------------------------------------]

G[-----------------------------------------------------------------]
D[-----4-5-----4-5-----4-5-----7-5-----4-5-----4-5-----4-5-----7-5-]
A[-3-3-----3-3-----5-5-----7-7-----3-3-----3-3-----5-5-----7-7-----]
E[-----------------------------------------------------------------]

G[-----------------------------------------------------------------]
D[-----4-5-----4-5-----4-5-----7-5-----4-5-----4-5-----4-5-----7-5-]
A[-3-3-----3-3-----5-5-----7-7-----3-3-----3-3-----5-5-----7-7-----]
E[-----------------------------------------------------------------]

G[-----------------------------------------------------------------]
D[------------------0h2p0------------------------------------------]
A[-3-33-33-3-2-22-2------2-0-00-000-0-10---------------------------]
E[-----------------------------------------------------------------]

____________________________________________________________________________
=============================((Don't Forget Me))============================
------------------------------_________________-----------------------------
============================================================================
____________________________________________________________________________

The only part to watch out for is near the end, It has pretty challenging stuff, but
pretty fun song. Also Play with a pick.

This riff is played Through the whole song, But I will list the Improv.
Flea does When it happens in the song

                                   __________   ____________
                                  /1st Ending\ / 2nd Ending \
G[-9--x-xx-x--5-x-xx-x-12-x-xx-x-7-][x-xx-x--]  [-xx-x--]
D[-7--x-xx-x--3-x-xx-x-10-x-xx-x-5-][x-xx-x--]  [-xx-x--]
A[---------------------------------][--------]  [-------]
E[---------------------------------][--------]  [-------]


  1:33

G]-9-99-9/14-1414-5-55-5/14-14---12-1212-10h12p10------7-77-14--14---]
D]-7-77-7---------3-33-3------14-10-1010---------12-10-5-55---14--14-]
A]-------------------------------------------------------------------]
E]-------------------------------------------------------------------]

G[-9-99-9-9-9-9-5-55-3h5-55-5-12-1212-14-1414-14---14-----------------]
D[-7-77-7-------3-33----------10-1010------------14--14-12-10h12-10---]
A[-----------------------------------------------------------------12-]
E[--------------------------------------------------------------------]

Just play this verse part again.

                                   /1st Ending\ / 2nd Ending \
G[-9--x-xx-x--5-x-xx-x-12-x-xx-x-7-][x-xx-x--]  [-xx-x--]
D[-7--x-xx-x--3-x-xx-x-10-x-xx-x-5-][x-xx-x--]  [-xx-x--]
A[---------------------------------][--------]  [-------]
E[---------------------------------][--------]  [-------]

2:35

G]-9-99-9/14h1616-5-55-5-----------12-1212-10h12p10------7-77------14---]
D]-7-77-7---------3-33-3-14-121212-10-1010---------12-10-5-55/12h14--14-]
A]----------------------------------------------------------------------]
E]----------------------------------------------------------------------]

G]-9-99-9/14h1616-5-55-5-----------12-1212-10h12p10--------12----------]
D]-7-77-7---------3-33-3-14-121212-10-1010---------12-10-14--14-1210---]
A]------------------------------------------------------------------12-]
E]---------------------------------------------------------------------]

G]-9-99-9/14h1616-5-55-5-----------12-1212-10h12p10----------12h14-]
D]-7-77-7---------3-33-3-14-121212-10-1010---------12-12---14------]
A]-----------------------------------------------------------------]
E]-----------------------------------------------------------------]

G]-9-99-9/14h1616-5-55-5-----------12-1212-10h12p10------]
D]-7-77-7---------3-33-3-14-121212-10-1010---------12-10-]
A]-------------------------------------------------------]
E]-------------------------------------------------------]

G[----12---------------12-----------]
D[-14----1412-10/12/14---14-12-10---]
A[-------------------------------12-]
E[----------------------------------]

G]-9-99-9/14h1616-5-55-5-----------12-1212-10h12p10------7-77------14---]
D]-7-77-7---------3-33-3-14-121212-10-1010---------12-10-5-55/12h14--14-]
A]----------------------------------------------------------------------]
E]----------------------------------------------------------------------]

G]-9-99-9/14h1616-5-55-5-----------12-1212-10h12p10--------12----------]
D]-7-77-7---------3-33-3-14-121212-10-1010---------12-10-14--14-1210---]
A]------------------------------------------------------------------12-]
E]---------------------------------------------------------------------]

G]-9-99-9/14h1616-5-55-5-----------12-1212-10h12p10----------12h14-]
D]-7-77-7---------3-33-3-14-121212-10-1010---------12-12---14------]
A]-----------------------------------------------------------------]
E]-----------------------------------------------------------------]

G]-9-99-9/14h1616-5-55-5-----------12-1212-10h12p10------]
D]-7-77-7---------3-33-3-14-121212-10-1010---------12-10-]
A]-------------------------------------------------------]
E]-------------------------------------------------------]

G[----12---------------12-----------]
D[-14----1412-10/12/14---14-12-10---]
A[-------------------------------12-]
E[----------------------------------]

                                   /1st Ending\ / 2nd Ending \
G[-9--x-xx-x--5-x-xx-x-12-x-xx-x-7-][x-xx-x--]  [-xx-x--]
D[-7--x-xx-x--3-x-xx-x-10-x-xx-x-5-][x-xx-x--]  [-xx-x--]
A[---------------------------------][--------]  [-------]
E[---------------------------------][--------]  [-------]

4:32

G[-9-x-xx-x-5-x-xx-x---------------]
D[-7-x-xx-x-3-x-xx-x---------------]
A[---------------------------------]
E[---------------------------------]


____________________________________________________________________________
=============================((The Zephyr Song))============================
------------------------------_________________-----------------------------
============================================================================
____________________________________________________________________________
This is a VERY fun song to play, not hard to sight read, it's just
very fun.

In the live version flea uses a pick, but really the pick is
optional.

**Let each note it this measure ring**

G[------------------------]
D[------------------------]
A[-12------10------7----8-]
E[------------------------]

G[------------------------4-4----------------------------------44----------]
D[-7-79-9-7--5-57-7-5--2-2---2-3-3---3--7-79-9-7--5-57-7-5--2-2---2-3---3h5]
A[--------------------------------3-3---------------------------------33---]
E[-------------------------------------------------------------------------]

G[--------------7-7------44------------------------------------4----4h5-4h5]
D[-7-79-9-7--5-5---5--2-2---2-3-3----3-7-79-9-7--5-57-75--2-2---2--3---3---]
A[-------------------------------2h3---------------------------------------]
E[-------------------------------------------------------------------------]

G[----11--14--11--14--11--11--14-------14--16--14-----14--16--14-----]
D[-12---12--12--12--12--12--12--12--12---12--12--12-14--14--14--14---]
A[-------------------------------------------------------------------]
E[-------------------------------------------------------------------]

G[----11--14--11--14--11--11--14-------14--16--14-----14--16--14-----]
D[-12---12--12--12--12--12--12--12--12---12--12--12-14--14--14--14---]
A[-------------------------------------------------------------------]
E[-------------------------------------------------------------------]

G[------------------------44------------]
D[-7-79-9-7--5-57-7-5--2-2---2-3-3-3-3--]
A[--------------------------------3-----]
E[--------------------------------------]

G[----------------------4-4--------------99------77-------9--------------]
D[-7-7h99-7-5-5h77-5-2-2---2--3-3---3-7-7--7--5-5--5----99-9--9h10--9h10-]
A[-------------------------------33------------------7-7-----8-----8-----]
E[-----------------------------------------------------------------------]

G[----11--14--11--14--11--11--14-------14--16--14-----14--16--14-----]
D[-12---12--12--12--12--12--12--12--12---12--12--12-14--14--14--14---]
A[-------------------------------------------------------------------]
E[-------------------------------------------------------------------]

G[----11--14--11--14--11--11--14-------14--16--14-----14--16--14-----]
D[-12---12--12--12--12--12--12--12--12---12--12--12-14--14--14--14---]
A[-------------------------------------------------------------------]
E[-------------------------------------------------------------------]

G[----11--14--11--14--11--11--14-------14--16--14-----14--16--14-----]
D[-12---12--12--12--12--12--12--12--12---12--12--12-14--14--14--14---]
A[-------------------------------------------------------------------]
E[-------------------------------------------------------------------]

G[----11--14--11--14--11--11--14-------14--16--14-----14--16--14-----]
D[-12---12--12--12--12--12--12--12--12---12--12--12-14--14--14--14---]
A[-------------------------------------------------------------------]
E[-------------------------------------------------------------------]

(Play this silently and smoothly, play under the guitar not over it)

G[-9-99-99-9-7-77-77-7-4-44-44-4-5-55-55-5-]
D[-7-77-77-7-5-55-55-5-2-22-22-2-3-33-33-3-]  Play Twice
A[-----------------------------------------]
E[-----------------------------------------]

G[--------------------------------------------------]
D[--------------------------------------------------]
A[-----------------------------22-------------------]
E[-5-55-7-7-55--3-335-5-33-0-00--00-1-111/13-131313-]

G[----------------------------------------------]
D[----------------------------------------------]
A[-----------------------------22---------------]
E[-5-55-7-7-55--3-335-5-33-0-00--00-1-----------]

G[----11--14--11--14--11--11--14-------14--16--14-----14--16--14-----]
D[-12---12--12--12--12--12--12--12--12---12--12--12-14--14--14--14---]
A[-------------------------------------------------------------------]
E[-------------------------------------------------------------------]

G[----11--14--11--14--11--11--14-------14--16--14-----14--16--14-----]
D[-12---12--12--12--12--12--12--12--12---12--12--12-14--14--14--14---]
A[-------------------------------------------------------------------]
E[-------------------------------------------------------------------]

G[----11--14--11--14--11--11--14-------14--16--14-----14--16--14-----]
D[-12---12--12--12--12--12--12--12--12---12--12--12-14--14--14--14---]
A[-------------------------------------------------------------------]
E[-------------------------------------------------------------------]

G[----11--14--11--14--11--11--14-------14--16--14-----14--16--14-----]
D[-12---12--12--12--12--12--12--12--12---12--12--12-14--14--14--14---]
A[-------------------------------------------------------------------]
E[-------------------------------------------------------------------]

G[----11--14--11--14--11--11--14-------14--16--14-----14--16--14-----]
D[-12---12--12--12--12--12--12--12--12---12--12--12-14--14--14--14---]
A[-------------------------------------------------------------------]
E[-------------------------------------------------------------------]

Play that till the end

End on 12 fret on the D string

____________________________________________________________________________
===============================((Can't Stop))===============================
------------------------------_________________-----------------------------
============================================================================
____________________________________________________________________________

All I have to say is.. FINALLY SOME SLAPPING AND POPPING!

( I'm not going to put which notes to slap and which ones to pop
because whenever I try it messes up..dont ask)

G[-----------------------------------]
D[-----------------------------------]
A[-----------------------------------]
E[-00000000000000000000000000-0-0-0--]
  Slowly get louder

Come after John plays his riff twice, or (0:43)

G[---7-9---7-9------7-9---7-9--------------------------------------]
D[----------------------------------9-9-----9-9-----10-10----------]
A[-7----x7-----x7-5-----x5----x5-----------------------------------]
E[-------------------------------7x-----0h7x---xx-8-------8x-10-x8-]

G[---7-9---7-9------7-9---7-9-----------------------------------------]
D[----------------------------------9-9-----9-9-----10-10---10-10-----]
A[-7----x7-----x7-5-----x5----x5--------------------------------------]
E[-------------------------------7x-----0h7x---xx-8-------x8-----8h10-]

G[---7-9---7-9------7-9---7-9----------------------------------------]
D[----------------------------------9-9-----9-9-----10-10---10-10----]
A[-7----x7-----x7-5-----x5----x5-------------------------------------]
E[-------------------------------7x-----0h7x---xx-8-------x8-----x8x-]

G[------------------------------------------------------]
D[------9h10-12-1212-12-12-9-9---9h10-1010-10h12-10h12--]
A[-10-10----------------------12------------------------]
E[------------------------------------------------------]

G[--------------------------------------------]
D[------9h10-12-1212-12-12-9-99-9-10-10h12-10-]
A[-10-10--------------------------------------]
E[--------------------------------------------]

G[------------------------------------------------------]
D[------9h10-12-1212-12-12-9-9---9h10-1010-10h12--------]
A[-10-10----------------------12------------------------]
E[------------------------------------------------------]
                                               \________
                                                ring the note

G[--------------------------------------------]
D[------9h10-12-1212-12-12---9--10------------]
A[-10-10--------------------------------------]
E[--------------------------------------------]

G[---7-9---7-9------7-9---7-9--------------------------------------]
D[----------------------------------9-9-----9-9-----10-10----------]
A[-7----x7-----x7-5-----x5----x5-----------------------------------]
E[-------------------------------7x-----0h7x---xx-8-------8x-10-x8-]

G[---7-9---7-9------7-9---7-9---------------------------------------]
D[----------------------------------9-9-----9-9-----10-10---10-10---]
A[-7----x7-----x7-5-----x5----x5------------------------------------]
E[-------------------------------7x-----0h7x---xx-8-------8------x8-]

G[---7-9---7-9------7-9---7-9-------------------------------------------]
D[----------------------------------9-9-----9-9-----10-10-x14-12--------]
A[-7----x7-----x7-5-----x5----x5--------------------------------1412-10-]
E[-------------------------------7x-----0h7x---xx-8---------------------]

G[---7-9---7-9------7-9---7-9---------------------------------------]
D[----------------------------------9-9-----9-9-----10-10---10-10---]
A[-7----x7-----x7-5-----x5----x5------------------------------------]
E[-------------------------------7x-----0h7x---xx-8-------8------x8-]

G[----------------------------------------------]
D[------9h10-12-1212-12-12-9-9--1010-12-10-9----]
A[-10-10----------------------12-------------12-]
E[----------------------------------------------]

G[----------------------------------------------------]
D[------9h10-12-1212-12-12-9-99-9-10-10-10/14-12------]
A[-10-10----------------------------------------14-12-]
E[----------------------------------------------------]

G[----------------------------------------------]
D[------9h10-12-1212-12-12-9-9--1010-12-10-9----]
A[-10-10----------------------12-------------12-]
E[----------------------------------------------]

G[--------------------------------------------]
D[------9h10-12-1212-12-12---9--10------------]
A[-10-10--------------------------------------]
E[--------------------------------------------]

G[----9-9-------14---------------------------------9-9----14--------------]
D[-----------------1212-------9-9-----12-1010----------------1212----9-9--]
A[-7---------------------------------------------7------------------------]
E[-------------------------7---------------------------------------7------]

G[----------------------9-99----14--------------------------------------]
D[-/12-1010-----------------------1212(12)----9-9--/12-1010-------------]
A[--------------------7--------------------------------------10h12------]
E[-----------10--11-------------------------7--7------------------10h12-]

G[---9-99----14--------------------------------]
D[-------------1212----9x--9--12-1010----------]
A[-7-------------------------------------------]
E[-------------------7----7--------------------]

G[---7-9---7-9------7-9---7-9----------------------------------------------]
D[----------------------------------9-9-----9-9--------10--10/14-----------]
A[-7----x7-----x7-5-----x5----x5--------------------------------10h12p10h12]
E[-------------------------------7x-----0h7x---xx-8-xx----x----------------]

G[---7-9---7-9------7-9---7-9----------------------------------------]
D[----------------------------------9-9-----9-9-----10-10------------]
A[-7----x7-----x7-5-----x5----x5------------------------------8h10---]
E[-------------------------------7x-----0h7x---xx-8-------8h10----x8-]

G[---7-9---7-9------7-9---7-9---------------------------------------]
D[----------------------------------9-9-----9-9-----10-10---10-10---]
A[-7----x7-----x7-5-----x5----x5------------------------------------]
E[-------------------------------7x-----0h7x---xx-8-------8------x8-]


G[---7-9---7-9------7-9---7-9---------------------------------------]
D[----------------------------------9-9-----9-9-----10-10---10-10---]
A[-7----x7-----x7-5-----x5----x5------------------------------------]
E[-------------------------------7x-----0h7x---xx-8-------8------x8-]

G[---7-9---7-9------7-9---7-9-----------------------------------------]
D[----------------------------------9-9-----9-9-----10-10---10-10-----]
A[-7----x7-----x7-5-----x5----x5--------------------------------------]
E[-------------------------------7x-----0h7x---xx-8-------x8-----8h10-]

G[---7-9---7-9------7-9---7-9-----------------------------------------]
D[----------------------------------9-9-----9-9-----10-10---10-10-----]
A[-7----x7-----x7-5-----x5----x5--------------------------------------]
E[-------------------------------7x-----0h7x---xx-8-------x8-----8h10-]

G[---7-9---7-9------7-9---7-9---------------------------------------]
D[----------------------------------9-9-----9-9-----10-10---10-10---]
A[-7----x7-----x7-5-----x5----x5------------------------------------]
E[-------------------------------7x-----0h7x---xx-8-------8------x8-]


____________________________________________________________________________
===========================((I Could Die For You))==========================
------------------------------_________________-----------------------------
============================================================================
____________________________________________________________________________
Fun song, Definatly look over the song a little bit, not for timing but
for the hammer ons,pull offs, slides, the improvisation, and also
volume setting.


Play Softly, and smoothly dont stand out too much.

G[---------------18/16-16/14-14/13-------]
D[-12/14--16/14--------------------------]
A[----------------------------------12\--]
E[---------------------------------------]

G[--------------------------66----------------------6-6-66-]
D[-4-4-44-4-4-4h6--------------4-4-4h6/7-6-4---------------]
A[----------------4-4-44-4-4----------------4-4-44-4-------]
E[---------------------------------------------------------]

G[-2-22-2-22-222-4-44-4-4-4-44----------79-11------------------]
D[-----------------------------7-7-77-77-----------------------]
A[-------------------------------------------------------------]
E[-------------------------------------------------------------]
                                            \__________________
                                             Hold that note

G[----9------11-----9---------------]
D[-7------9------7-----9h11p9h11p9--]
A[----------------------------------]
E[----------------------------------]

G[--------------------------14---14h16p14------]
D[--------------------12h14---16---------------]
A[----------------------------------------12\--]
E[---------------------------------------------]

G[-----------------------------------------------x6-666----------9------11-]
D[-4-4-44-4h6---------------4-44-4h6/7\6-4--------------7-7-77-77--9-999--9]
A[------------4-x4-x4-44-44----------------4-4-44--------------------------]
E[-------------------------------------------------------------------------]

G[-----------79-11--]
D[-7-7-77-77--------]
A[------------------]
E[------------------]

G[---------------------------9-9--------------------]
D[-11-11-1111-11-11-9-7-777-7-7---11-1111-11-119-7--]
A[--------------------------------------------------]
E[--------------------------------------------------]

G[------------------------------16\-------------------]
D[-p12h14p12h14p12--12-1212-1212------p12h14p12h14p12-]
A[----------------------------------------------------]
E[----------------------------------------------------]

G[----9------11-----9---------------]
D[-7------9------7-----9h11p9h11p9--]
A[----------------------------------]  Play Twice
E[----------------------------------]

G[-----------------------------------------------------14----]
D[-11-1111-11-11-11--12-12-12-1212-1212--11-1111-11-11-12----]
A[-----------------------------------------------------------]
E[-----------------------------------------------------------]

G[------------------------------16\-------------------]
D[-p12h14p12h14p12--12-1212-1212------p12h14p12h14p12-]
A[----------------------------------------------------]
E[----------------------------------------------------]

G[---------x9-99---------11-11-11---------9-9-9-----------------------]
D[-7--77-7-------9-99-9-x---------7-7-77h9------9h11p9h11p9-9x9-9-999-]
A[--------------------------------------------------------------------]
E[--------------------------------------------------------------------]

G[--------9h11p9h11p9---------11-11-11---------9h11p9----------------------]
D[-7-77-7-------------9-99-9x----------7-77-7h9-------9h11p9h11p9-99999999-]
A[-------------------------------------------------------------------------]
E[-------------------------------------------------------------------------]

G[-------9h11p9------11-11-111111-------9h11p9------------------------]
D[-7-7/9--------9-99--------------7-7/9-------9h11p9h11p9-9-99-9x999--]
A[--------------------------------------------------------------------]
E[--------------------------------------------------------------------]

G[-------9h11p9/16------11-11-111111-------9h11p9/16-----------------------]
D[-7-7/9-----------9-99--------------7-7/9----------9h11p9h11p9-9-99-9x999-]
A[-------------------------------------------------------------------------]
E[-------------------------------------------------------------------------]

G[---------x9-99---------11-11-11---------9-9-9-----------------------]
D[-7--77-7-------9-99-9-x---------7-7-77h9------9h11p9h11p9-9x9-9-999-]
A[--------------------------------------------------------------------]
E[--------------------------------------------------------------------]

G[---------x9-99---------11-11-11---------9-9-9--------------------------]
D[-7--77-7-------9-99-9-x---------7-7-77h9------9h11p9h11p9--------------]
A[-----------------------------------------------------------------------]
E[-----------------------------------------------------------------------]
                                                           \_____________
                                                           Ring on that note

____________________________________________________________________________
================================((Midnight))================================
------------------------------_________________-----------------------------
============================================================================
____________________________________________________________________________

Very Different but very intense near the end, have fun with it.


G[---9-7-6-4-2------------------9-7-6-4-2---------9-7-6-4-2---]
D[---------------0-2-0---2-4----------------4---------------0-]
A[-9--------------------------9------------------9------------]
E[------------------------------------------------------------]

G[---9-7-6-4-2---------2-----9-7-6-4-2-----0h2--4-2-4-2-4-2----------]
D[--------------0---0h2-0-----------------0-------------------0-2-0--]
A[-9-----------------------9-----------------------------------------]
E[-------------------------------------------------------------------]

G[---9-7-6-4-2-----------9-7-6-4-2--------9----9-7-6-4-2------2-----]
D[-------------0-2-0---------------0--9h11---------------0-2-4-4-2--]
A[-9-------------------9---------------------9----------------------]
E[------------------------------------------------------------------]

G[-4-2-4-2-4-2-0h2p0----------]
D[-------------------2-0------]
A[-----------------------2-0--]
E[----------------------------]

G[---9---------9--------10---------10-------9---------9-------10------10---]
D[-7---7-----7---7---10----10---10----10--7---7-----7---7---10--10--10--10-]
A[-------7---------8----------8-----------------7---------8--------8-------]
E[---------0--------------------------------------0------------------------]

G[----------------------]
D[----------------------]
A[-8-88-8-88-8-88-8--8--]
E[------------------8-8-]

G[-------------------------------------------------------------------------]
D[----------------44-7-------------------------44-7---------------------47-]
A[-3-33---------5---------------3-33---------5--------------3-33-------5---]
E[------3-3-3xx--------5-55-5-0------3-3-3xx--------5555555-----3-3-3xx---5]

G[------------------------------------------------]
D[---------------44h7-----------------------------]
A[-3-33--------55----5-55-5-55-5-555-5-555-5-5-5--]
E[-----3-3-3xx------------------------------------]

G[---9-7-6-4-2-----------9-7-6-4-2--------9----9-7-6-4-2------2-----]
D[-------------0-2-0---------------0--9h11---------------0-2-4-4-2--]
A[-9-------------------9---------------------9----------------------]
E[------------------------------------------------------------------]

G[-4-2-4-2-4-2-0h2p0----------]
D[-------------------2-0------]
A[-----------------------2-0--] Play this Twice
E[----------------------------]

G[---9---------9--------10---------10-------9---------9-------10------10---]
D[-7---7-----7---7---10----10---10----10--7---7-----7---7---10--10--10--10-]
A[-------7---------8----------8-----------------7---------8--------8-------]
E[---------0--------------------------------------0------------------------]

G[----------------------]
D[----------------------]
A[-8-88-8-88-8-88-8--8--]
E[------------------8-8-]

G[-------------------------------------------------------------------------]
D[----------------44-7--------------------------------------------------47-]
A[-3-33---------5---------------3-33---------5--------------3-33-------5---]
E[------3-3-3xx--------5-55-5-0------3-3-3xx---22-5-5555555-----3-3-3xx---5]


G[------------------------------------------------]
D[---------------44h7-----------------------------]
A[-3-33--------55----5-55-5-55-5-555-5-555-5-5-5--]
E[-----3-3-3xx------------------------------------]


G[-------------------------------------------------------------------------]
D[----------------44-7-------------------------44-7---------------------47-]
A[-3-33---------5---------------3-33---------5--------------3-33-------5---]
E[------3-3-3xx--------5-55-5-0------3-3-3xx--------5555555-----3-3-3xx---5]

G[------------------------------------------------]
D[---------------44h7-----------------------------]
A[-3-33--------55----5-55-5-55-5-555-5-555-5-5-5--]
E[-----3-3-3xx------------------------------------]

G[-------------------------------------------------------------------------]
D[----------------44-7-------------------------44-7---------------------47-]
A[-3-33---------5---------------3-33---------5--------------3-33-------5---]
E[------3-3-3xx--------5-55-5-0------3-3-3xx--------5555555-----3-3-3xx---5]

G[------------------------------------------------]
D[---------------44h7-----------------------------]
A[-3-33--------55----5-55-5-55-5-555-5-555-5-5-5--]
E[-----3-3-3xx------------------------------------]

G[-------------------------------------------------------------------------]
D[----------------44-7-------------------------44-7---------------------47-]
A[-3-33---------5---------------3-33---------5--------------3-33-------5---]
E[------3-3-3xx--------5-55-5-0------3-3-3xx--------5555555-----3-3-3xx---5]

G[------------------------------------------------------]
D[---------------44h7-----------------------------------]
A[-3-33--------55----5-55-5-55-5-555-5/1717171717171717-]
E[-----3-3-3xx------------------------------------------]

G[-------------------------------------------------------------------------]
D[----------------44-7-------------------------44-7---------------------47-]
A[-3-33---------5---------------3-33---------5--------------3-33-------5---]
E[------3-3-3xx--------5-55-5-0------3-3-3xx--------5555555-----3-3-3xx---5]

G[-----------------------------------------------------------------------]
D[---------------44h7----------------------------------------------------]
A[-3-33--------55----5-55-5-55-5-555-5-555-5-5-5-5-5-5-55-55-0-----------]
E[-----3-3-3xx-----------------------------------------------------------]

____________________________________________________________________________
========================((Throw Away Your Television))======================
------------------------------_________________-----------------------------
============================================================================
____________________________________________________________________________

Fun fun song.

(Live Flea will do a bass solo, so if you play along with a live track, then feel free 
go crazy befor the bass intro.)

Play for a while
G[------------------------------------]
D[------------------------------------]
A[-----------------------7--77--77----]
E[-55-5-055-5-555-5-3-00---0---0--8-8-]

      Play this at 1:20

G[-14--14--14---16-------------]
D[---14--14--14---14-14-171717-]  Play Three Times
A[-----------------------------]
E[-----------------------------]

Then..

G[-12--12--12---10--10--10----]
D[---12--12--12---10--10--10\-]
A[----------------------------]
E[----------------------------]

G[---------------------------------------------------------------------]
D[------------------------------------------------------------------10-]
A[-----------------------7--77--77-------------------------7-77-77-----]
E[-55-5-055-5-555-5-3-00---0---0--8-8--55-5-055-5-555-5-300-0--0--8----]


Just play that riff again

G[------------------------------------]
D[------------------------------------]
A[-----------------------7--77--77----]
E[-55-5-055-5-555-5-3-00---0---0--8-8-]


Play this at 2:16

G[-14--14--14---16-------------]
D[---14--14--14---14-14-171717-]  Play Three Times
A[-----------------------------]
E[-----------------------------]

Then..

G[-12--12--12---10--10--10----]
D[---12--12--12---10--10--10--]
A[----------------------------]
E[----------------------------]


G[-------------------------------------------------------------------]
D[-------------------------------------------------------------------]
A[-12121212121212121212121212121212-14141414141414141414141414141414-]
E[-------------------------------------------------------------------]

G[---------------------------------------]
D[---------------------------------------]
A[-1717171717171717h19-171717171717-1414-]
E[---------------------------------------]

G[-------------------------------------------------------------------]
D[-------------------------------------------------------------------]
A[-12121212121212121212121212121212-14141414141414141414141414141414-]
E[-------------------------------------------------------------------]

G[---------------------------------------]
D[---------------------------------------]
A[-1717171717171717h19-171717171717-1414-]
E[---------------------------------------]

G[-------------------------------------------------------------------]
D[-------------------------------------------------------------------]
A[-12121212121212121212121212121212-14141414141414141414141414141414-]
E[-------------------------------------------------------------------]

G[---------------------------------------]
D[---------------------------------------]
A[-1717171717171717h19-171717171717-1414-]
E[---------------------------------------]

G[-------------------------------------------------------------------]
D[-------------------------------------------------------------------]
A[-12121212121212121212121212121212-14141414141414141414141414141414-]
E[-------------------------------------------------------------------]

G[---------------------------------------]
D[---------------------------------------]
A[-1717171717171717h19-171717171717-1414-]
E[---------------------------------------]

Play this at 3:19

(Play till the end)

G[------------------------------------]
D[------------------------------------]
A[-----------------------7--77--77----]
E[-55-5-055-5-555-5-3-00---0---0--8-8-]

____________________________________________________________________________
================================((Cabron))=================================
--------------------------------__________---------------------------------
===========================================================================
___________________________________________________________________________

This is the Verse, play this for a while.

G[--------------------------]
D[--------------------------]
A[-5-x5-x5-55-54-2-22-22024-]
E[--------------------------]


Play this at 0:41

G[--------12--------12--------14-------]
D[----1212------1212------1414------14-]
A[-10--------10--------12--------12----]
E[-------------------------------------]

G[--------------------------]
D[--------------------------]
A[-5-x5-x5-55-54-2-22-22024-]
E[--------------------------]

Play this at 0:54

G[--------12--------12--------14-------]
D[----1212------1212------1414------14-]
A[-10--------10--------12--------12----]
E[-------------------------------------]

If you want you can just play the verse for this
G[-----------------------------------6-77h9-7-6h7--------------]
D[-------------------7-9-9-99999p7h9-------------9-999p7-------]
A[-----------------9-------------------------------------9p7h9-]
E[-10-10-1010101010--------------------------------------------]

G[-------------------------------------------------]
D[-------------------------------------------------]
A[-12-12-12-12-12-12-12-12-14-14-14-14-14-14-14-14-]  Play this measure
D[-------------------------------------------------]       Twice


Play this for a while again
G[--------------------------]
D[--------------------------]
A[-5-x5-x5-55-54-2-22-22024-]
E[--------------------------]

Play this at 1:41

G[--------12--------12--------14-------]
D[----1212------1212------1414------14-]
A[-10--------10--------12--------12----]
E[-------------------------------------]

Play this for a while again.
G[--------------------------]
D[--------------------------]
A[-5-x5-x5-55-54-2-22-22024-]
E[--------------------------]

Play this at 2:06

G[--------12--------12--------14-------]
D[----1212------1212------1414------14-]
A[-10--------10--------12--------12----]
E[-------------------------------------]

G[-----------------------------------6-77h9-7-6h7--------------]
D[-------------------7-9-9-99999p7h9-------------9-999p7-------]
A[-----------------9-------------------------------------9p7h9-] Play twice
E[-10-10-1010101010--------------------------------------------]during solo

G[-------------------------------------------------]
D[-------------------------------------------------]
A[-12-12-12-12-12-12-12-12-14-14-14-14-14-14-14-14-]  Play this measure
D[-------------------------------------------------]       Twice

Play over and over till the end of the song
G[--------------------------]
D[--------------------------]
A[-5-x5-x5-55-54-2-22-22024-]
E[--------------------------]

End on 12th fret of the A string


____________________________________________________________________________
================================(( Tear ))=================================
--------------------------------__________---------------------------------
===========================================================================
___________________________________________________________________________
This is one of my favorites to play, it is very fun. Have a good time
this one.

Great Song. Play silently and smoothly

  0:18
G[-------------------------------------------------------------]
D[-------------------------------------------------------------]
A[-3---------------------3---------------------3---------------]
E[------3-----5----------------3------5---------------3------5-]

G[------------------------------------------------------------------------]
D[---------------------------------------------------------------5h7p5----]
A[-3--------------------3---------------------3-----------------------7-5-]
E[-------3------5--------------3-----5--------------3-----5---------------]

G[--------------------------------------]
D[--------------------------------------]
A[-3------------------3-----------------]
E[------3-----5--------------12\--------]

G[-------------------------------------------------------------------------]
D[-----17--------------12--------------------------------------------------]
A[-15----15--14-1414-10--10-10-12h4p12-10-----15------14--------------10-12]
E[-----------------------------------------13---13--12---12--10-12-13------]

G[-------------------------------------------------------------------------]
D[-----17--------19-17------14--------12-----------------------------------]
A[-15----15--14-------14-12---12--1010--10-------14-------------10-1012/14-]
E[----------------------------------------1313-12--12--10-12-13------------]

G[-----------------------------------]
D[----7--------------7---------------]
A[-----------------------------------]
E[-5-5--5-55-55-5-5------------------]
                     \________________
                      Ring this note

G[-------------------------------------------------------------]
D[-----2h3-5-------------------------2h3-5---------------------]
A[-3-3-----------2h3-5-----------3-3-----------2h3-5-----------]
E[-----------3-3-------5-5--5x5------------3-3--------5-5--5x5-]

G[------------------------------------------]
D[-----2h3-5--------------------------------]
A[-3-3-----------2h3-5----------3-33-5------]
E[-----------3-3-------5-5--5x5--------12\--]

G[---------------------------------------------------------------]
D[-----2h3-5--------------------------2h3-5----------------------]
A[-3-3-----------2h3-5------------3-3-----------2h3-5------------]
E[-----------3-3-------5-5-5x5-55-----------3-3-------5-5-5x5-x5-]

G[------------------------------------------]
D[-----2h3-5--------------------------------]
A[-3-3-----------2h3-5----------3-33--------]
E[-----------3-3-------5-5--5x5--------12\--]


G[-------------------------------------------------------------------------]
D[------17---------17--------14------12/14-12------------------------------]
A[-15-15--15--1414---14-12-12--12-10---------10----------------------101214]
E[---------------------------------------------13-1313-12-1212-101213------]

G[----------------------------------------------------------------------]
D[------17--------1917------14------1412--------------------------------]
A[-15-----15-1414-----14-12---12-10-----10-----------------------101214-]
E[-----------------------------------------13-1313-12-1212-101213-------]

G[-----------------------------------]
D[----7------------567---------------]
A[-----------------------------------]
E[-5-5--5-55-55-5-5------------------]

G[-----------------------------------------17-----------------------------]
D[-----------15--------------------------15--15---------------------------]
A[---------15--15--------10h12p10------15------15---15-------10h12p10-----]
E[-13------------13---12---------12-13------------13--13---12--------1312-]

G[-------------------------------------------------------------]
D[--------15---------------------------------------------------]
A[----1515--15-----10h12p10-----------1515-15------------------]
E[-13---------15-12--------12-13--13---------13-15-12--1213-15-]

G[---------------------------------------------------------------]
D[-----2h3-5--------------------------2h3-5----------------------]
A[-3-3-----------2h3-5------------3-3-----------2h3-5------------]
E[-----------3-3-------5-5-5x5-55-----------3-3-------5-5-5x5-x5-]

G[----------------------------------------------------------------2-0-]
D[-----2h3-5--------------------------2h3-5---------------------------]
A[-3-3-----------2h3-5------------3-3-----------2h3-5-----------------]
E[-----------3-3-------5-5-5x5-55-----------3-3-------5-5-5x5-x5------]

G[------------------------------------------]
D[-----2h3-5--------------------------------]
A[-3-3-----------2h3-5---------75-3-33-5-5\-]
E[-----------3-3-------5-5-5x5--------------]

G[-------------------------------------------------------------------------]
D[------17---------17--------14------12/14-12------------------------------]
A[-15-15--15--1414---14-12-12--12-10---------10----------------------101214]
E[---------------------------------------------13-1313-12-1212-101213------]

G[----------------------------------------------------------------------]
D[------17--------1917------14------1412--------------------------------]
A[-15-----15-1414-----14-12---12-10-----10-----------------------101214-]
E[-----------------------------------------13-1313-12-1212-101213-------]

G[---------------------]
D[----7------------567-]
A[---------------------]  Play twice
E[-5-5--5-55-55-5-5----]

____________________________________________________________________________
==============================((On Mercury ))===============================
--------------------------------__________---------------------------------
===========================================================================
___________________________________________________________________________
This song has a great mexican vibe comin' from it, so don't play soft like the others.
very to sight read.


  Play this riff for a while
G[-----------------------------------------------]
D[-----------------------7-xx--------------------]
A[----9-99-1010-99-77-99-----7-77-77-99-1010-99--]
E[-7xx-------------------------------------------]

Play this at 0:34

G[-------------------------------------------------------------------------]
D[-5-xx5-x5-55-5h7p5-4-44-4-xx44-002244-5-xx5-x5-x-7h9p7-5-4-444-4-44-0-2-4]
A[-------------------------------------------------------------------------]
E[-------------------------------------------------------------------------]

G[---------------7--------------------9-------------------7----------------]
D[-----9-------7---7-------7--------9---9-------9-------7---7-----7--------]
A[---9---9---5-------5---7---7----7-----------9---9---5---------7--7-------]
E[-7-------0-----------5-------x-----------7x-------0---------5x----222-222]

G[---------------7-------------------9-------------------7----------------]
D[-----9-------7---7-------7-------9---7-------9-------7---7---/11-----\8-]
A[---9---9---5-------5---7---7---7-----------9---9---5--------------------]
E[-7-------0-----------5-------x----------7x-------0----------------------]


Play this riff for a while
G[-----------------------------------------------]
D[-----------------------7-xx--------------------]
A[----9-99-1010-99-77-99-----7-77-77-99-1010-99--]
E[-7xx-------------------------------------------]

Play this at (1:39)

G[-------------------------------------------------------------------------]
D[-5-xx5-x5-55-5h7p5-4-44-4-xx44-002244-5-xx5-x5-x-7h9p7-5-4-444-4-44-0-2-4]
A[-------------------------------------------------------------------------]
E[-------------------------------------------------------------------------]

G[-------------------------------------------------------------------------]
D[-5-xx5-x5-55-5h7p5-4-44-4-xx44-002244-5-xx5-x5-x-7h9p7-5-4-444-4-44-0-2-4]
A[-------------------------------------------------------------------------]
E[-------------------------------------------------------------------------]

G[---------------7--------------------9-------------------7----------------]
D[-----9-------7---7-------7--------9---9-------9-------7---7-----7--------]
A[---9---9---5-------5---7---7----7-----------9---9---5---------7--7-------]
E[-7-------0-----------5-------x-----------7x-------0---------5x----222-222]

G[---------------7-------------------9-------------------7----------------]
D[-----9-------7---7-------7-------9---7-------9-------7---7---/11-----\8-]
A[---9---9---5-------5---7---7---7-----------9---9---5--------------------]
E[-7-------0-----------5-------x----------7x-------0----------------------]

G[----------------------------------------------------------------]
D[-9-9999-9-----------7-77-7h9------------------------------------]
A[----------9-9----------------7---------------9-9-----------77-7-]
E[--------------------------------------7-77-7---------5-5555-----]

Play this riff for a while
G[-----------------------------------------------]
D[-----------------------7-xx--------------------]
A[----9-99-1010-99-77-99-----7-77-77-99-1010-99--]
E[-7xx-------------------------------------------]

Play this at 2:34

G[----------------------]
D[-4-44-4-44-4-4-4--4-4-]
A[------------4-4-4-----]
E[----------------------]

G[---------------7--------------------9-------------------7----------------]
D[-----9-------7---7-------7--------9---9-------9-------7---7-----7--------]
A[---9---9---5-------5---7---7----7-----------9---9---5---------7--7-------]
E[-7-------0-----------5-------x-----------7x-------0---------5x----222-222]

G[---------------7-------------------9-------------------7----------------]
D[-----9-------7---7-------7-------9---7-------9-------7---7---/11h13--\8-]
A[---9---9---5-------5---7---7---7-----------9---9---5--------------------]
E[-7-------0-----------5-------x----------7x-------0----------------------]

____________________________________________________________________________
==============================((Minor Thing))===============================
--------------------------------__________---------------------------------
===========================================================================
___________________________________________________________________________


G[-------------------------------------------]
D[-4-4-44-4-44-4-44--------------------------]  Play Four times
A[------------------4--5-5-55-5-55-5-55-2222-]
E[-------------------------------------------]

G[---------------------------------------]
D[---------------------------------------]
A[-0-0-00-0-00-0000-4-5-55-55-55-5-55-54-]  Play twice
E[---------------------------------------]


Slap the 2's
G[---------------------------]
D[---------------------------]
A[---------------------------]  Play twice
E[-2-x2-2-x2-2-x2-2-22-/5577-]
   s ss s ss s ss s ss

G[---------------------------------------]
D[---------------------------------------]
A[-0-0-00-0-00-0000-4-5-55-55-55-5-55-54-]
E[---------------------------------------]

G[-------------------------------------------]
D[-4-4-44-4-44-4-44--------------------------]  Play Four times
A[------------------4--5-5-55-5-55-5-55-2222-]
E[-------------------------------------------]

G[---------------------------------------]
D[---------------------------------------]
A[-0-0-00-0-00-0000-4-5-55-55-55-5-55-54-]  Play twice
E[---------------------------------------]


Slap the 2's
G[---------------------------]
D[---------------------------]
A[---------------------------]  Play Four
E[-2-x2-2-x2-2-x2-2-22-/5577-]
   s ss s ss s ss s ss

Play this during the solo
G[---------------------------------------]
D[---------------------------------------]
A[-0-0-00-0-00-0000-4-5-55-55-55-5-55-54-]
E[---------------------------------------]


After solo
G[-------------------------------------------]
D[-4-4-44-4-44-4-44--------------------------]  Play Four times
A[------------------4--5-5-55-5-55-5-55-2222-]
E[-------------------------------------------]

(I made a little error, Hold the notes longer than I put, not the fills
just the root nots (2, and 4) But the fills are correct).)

G[--------------------------------------------------------------------]
D[-2-22-22-22-2--4-44-44-44---2-22-22-22-2--4-44-44-42--2-22-22-22-2--]
A[-------------2-----------4--------------2-----------4-------------2-]
E[--------------------------------------------------------------------]

G[--------------------------------------97---------------------------------]
D[-4-44-44-44-4--2-22-22-22-22-----4-44---97----2-22-22-22-2--4-44-44-444--]
A[-------------4---------------2h4----------987-------------2------------4-]
E[-------------------------------------------------------------------------]

G[-----------------------------------------------------------------------]
D[-2-22-22-22-2---4-4-44-44-4--2-2-22-22--2--4-444-44-2---2-2-22-22--4---]
A[-------------2-------------4-------2---2-2------------4----------4-----]
E[-----------------------------------------------------------------------]


____________________________________________________________________________
==============================((Warm Tape ))===============================
--------------------------------__________---------------------------------
===========================================================================
___________________________________________________________________________

G[---8-----8-8-88---10----9-9-99-]
D[-------------------------------]
A[-------6--------------7--------]
E[-7---7----------9---9----------]

Do this at 0:51
G[----------4-44---------8-8-6-4-4h6-4-------------4-44-----]
D[-6-66-666------4-44-6-6-------------44--6-66-666-----4-44-]
A[----------------------------------------------------------]
E[----------------------------------------------------------]

G[---6---6---6--8h9-9--]
D[-4--4-4-4-4-4--------]  Play Twice
A[---------------------]
E[---------------------]

Go back to this
G[---8-----8-8-88---10----9-9-99-]
D[-------------------------------]
A[-------6--------------7--------]
E[-7---7----------9---9----------]

Play this at 2:08

G[----------4-44---------8-118-6-4-4h6-4-------------4-44-----]
D[-6-66-666------4-44-6-6---------------44--6-66-666-----4-44-]
A[------------------------------------------------------------]
E[------------------------------------------------------------]

G[---6---6---6---6-----]
D[-4--4-4-4-4-4-4-4-4--]
A[---------------------]
E[---------------------]

G[----------4-44---------8-8-6-4-4h6-4-------------4-44-----]
D[-6-66-666------4-44-6-6-------------44--6-66-666-----4-44-]
A[----------------------------------------------------------]
E[----------------------------------------------------------]

G[---6---6---6--8h9-9--]
D[-4--4-4-4-4-4--------]
A[---------------------]
E[---------------------]

Some people think the bass has a part after the 11's but iv listened,
and it doesnt. just play this then let anthony sing, and repeat
dont that. And yes those are 11's

G[-----------------------------------------------------------------]
D[-11-11-1111-11-11-1111-1111--------------------------------------]
A[-----------------------------------------------------------------] X4
E[-----------------------------------------------------------------]

Go back to this
G[---8-----8-8-88---10----9-9-99-]
D[-------------------------------]
A[-------6--------------7--------]
E[-7---7----------9---9----------]

End on 7th fret on the E string.

____________________________________________________________________________
===========================((The Venice Queen))============================
--------------------------------__________---------------------------------
===========================================================================
___________________________________________________________________________

When I first heard this song, It gave me such an erie, but beautiful
vibe.. Definatly one of my favorites

G[----------------]
D[----------------]
A[-7-77777777-5-6-]
E[----------------]

Switch between these two riffs through the first half of the song

G[-----------------------------]
D[-----------------------------]
A[-----------------------------]
E[-3-3-33-33-333-5-5-55-55-555-]

When john pulls out his acoustic play this, or play at 2:53

Play four times
G[-------------------------------------------------------------------------]
D[-------------------------------------------------------------------------]
A[-7-7-7x------7-77x-----7-777-7----------------------77-77-77/171717171717]
E[-------8-8-8------8-88--------8-8-8-8-888-8-8888-8-8---------------------]

G[--------------------------------------]
D[--------------------------------------]
A[-7-7-77-----7-7-7x7-----7-777-7x------]
E[-------8-8-8-------8-88---------888---]

Play this Four times
G[----------------------------------------------------7-777-7-77-7-77-]
D[-----------------------------------------------6666-----------------]
A[-------------------5-555-5-55-55-5-5-8-888-8-88---------------------]
E[-5-555-5-55-55-5-5--------------------------------------------------]

G[-------------------------------------------------------------------------]
D[-------------------------------------------------------------------------]
A[-------------------5-555-5-55-55-5-5-8-888-8-88-7-777-7/-1717171717171717]
E[-5-555-5-55-55-5-5-------------------------------------------------------]

G[----------------------------------------------------7-777-7-77-7-77-]
D[-----------------------------------------------6666-----------------]
A[-------------------5-555-5-55-55-5-5-8-888-8-88---------------------]
E[-5-555-5-55-55-5-5--------------------------------------------------]

G[-------------------------------------------------------------------------]
D[-------------------------------------------------------------------------]
A[-------------------5-555-5-55-55-5-5-8-888-8-88-7-777-7/-1717171717171717]
E[-5-555-5-55-55-5-5-------------------------------------------------------]

G[-------------------------------------------------------------------------]
D[-------------------------------------------------------------------------]
A[-------------------5-555-5-55-55-5-5-8-888-8-88-7-777-7/-1717171717171717]
E[-5-555-5-55-55-5-5-------------------------------------------------------]

G[-------------------------------------------------------------------------]
D[-------------------------------------------------------------------------]
A[-------------------5-555-5-55-55-5-5-8-888-8-88-7-777-7/-1717171717171717]
E[-5-555-5-55-55-5-5-------------------------------------------------------]

G[-------------------------------------------------------------------------]
D[-------------------------------------------------------------------------]
A[-------------------5-555-5-55-55-5-5-8-888-8-88/5------------------------]
E[-5-555-5-55-55-5-5-------------------------------------------------------]

And thats the album..Hmm I think I should thought of catchier ending
like.. "And thats that" no... I dont know.. but anyways thankyou for looking at my tab I
do another Chili Pepper Tab, I dont know though.
Anyways If you like rancid I got lots of those tabs Including an
Indestructable tab.Thanks again for reading this tab.

Comment and Rate if you liked the tab
comments
print report bad tab
29 comments total. Showing first comments.
0 reply
RobG&D wrote on December 15 2006, 05:02 am

Look pretty good man, looks like you put the effort in. Well Done.

+1 reply
bassman2013 wrote on December 16 2006, 01:20 pm

pretty good man
now can you do californication haha

0 reply
rockking123 wrote on January 14 2007, 06:04 am

Class tab well done 4 1/2 stars

I want to post or [tab]
guest
You may want to rate the tab now too:
select rating
Please do not post tabs as comments. Select "correction" instead!